  0
SECTION
  2
HEADER
  9
$ACADVER
  1
AC1018
  9
$ACADMAINTVER
 70
     0
  9
$DWGCODEPAGE
  3
ANSI_1252
  9
$INSBASE
 10
0.0
 20
0.0
 30
0.0
  9
$EXTMIN
 10
1.000000000000000E+20
 20
1.000000000000000E+20
 30
1.000000000000000E+20
  9
$EXTMAX
 10
-1.000000000000000E+20
 20
-1.000000000000000E+20
 30
-1.000000000000000E+20
  9
$LIMMIN
 10
0.0
 20
0.0
  9
$LIMMAX
 10
12.0
 20
9.0
  9
$ORTHOMODE
 70
     0
  9
$REGENMODE
 70
     1
  9
$FILLMODE
 70
     1
  9
$QTEXTMODE
 70
     0
  9
$MIRRTEXT
 70
     1
  9
$LTSCALE
 40
1.0
  9
$ATTMODE
 70
     1
  9
$TEXTSIZE
 40
0.2
  9
$TRACEWID
 40
0.05
  9
$TEXTSTYLE
  7
Standard
  9
$CLAYER
  8
0
  9
$CELTYPE
  6
ByLayer
  9
$CECOLOR
 62
   256
  9
$CELTSCALE
 40
1.0
  9
$DISPSILH
 70
     0
  9
$DIMSCALE
 40
1.0
  9
$DIMASZ
 40
0.18
  9
$DIMEXO
 40
0.0625
  9
$DIMDLI
 40
0.38
  9
$DIMRND
 40
0.0
  9
$DIMDLE
 40
0.0
  9
$DIMEXE
 40
0.18
  9
$DIMTP
 40
0.0
  9
$DIMTM
 40
0.0
  9
$DIMTXT
 40
0.18
  9
$DIMCEN
 40
0.09
  9
$DIMTSZ
 40
0.0
  9
$DIMTOL
 70
     0
  9
$DIMLIM
 70
     0
  9
$DIMTIH
 70
     1
  9
$DIMTOH
 70
     1
  9
$DIMSE1
 70
     0
  9
$DIMSE2
 70
     0
  9
$DIMTAD
 70
     0
  9
$DIMZIN
 70
     0
  9
$DIMBLK
  1

  9
$DIMASO
 70
     1
  9
$DIMSHO
 70
     1
  9
$DIMPOST
  1

  9
$DIMAPOST
  1

  9
$DIMALT
 70
     0
  9
$DIMALTD
 70
     2
  9
$DIMALTF
 40
25.4
  9
$DIMLFAC
 40
1.0
  9
$DIMTOFL
 70
     0
  9
$DIMTVP
 40
0.0
  9
$DIMTIX
 70
     0
  9
$DIMSOXD
 70
     0
  9
$DIMSAH
 70
     0
  9
$DIMBLK1
  1

  9
$DIMBLK2
  1

  9
$DIMSTYLE
  2
Standard
  9
$DIMCLRD
 70
     0
  9
$DIMCLRE
 70
     0
  9
$DIMCLRT
 70
     0
  9
$DIMTFAC
 40
1.0
  9
$DIMGAP
 40
0.09
  9
$DIMJUST
 70
     0
  9
$DIMSD1
 70
     0
  9
$DIMSD2
 70
     0
  9
$DIMTOLJ
 70
     1
  9
$DIMTZIN
 70
     0
  9
$DIMALTZ
 70
     0
  9
$DIMALTTZ
 70
     0
  9
$DIMUPT
 70
     0
  9
$DIMDEC
 70
     4
  9
$DIMTDEC
 70
     4
  9
$DIMALTU
 70
     2
  9
$DIMALTTD
 70
     2
  9
$DIMTXSTY
  7
Standard
  9
$DIMAUNIT
 70
     0
  9
$DIMADEC
 70
     0
  9
$DIMALTRND
 40
0.0
  9
$DIMAZIN
 70
     0
  9
$DIMDSEP
 70
    46
  9
$DIMATFIT
 70
     3
  9
$DIMFRAC
 70
     0
  9
$DIMLDRBLK
  1

  9
$DIMLUNIT
 70
     2
  9
$DIMLWD
 70
    -2
  9
$DIMLWE
 70
    -2
  9
$DIMTMOVE
 70
     0
  9
$LUNITS
 70
     2
  9
$LUPREC
 70
     4
  9
$SKETCHINC
 40
0.1
  9
$FILLETRAD
 40
0.5
  9
$AUNITS
 70
     0
  9
$AUPREC
 70
     0
  9
$MENU
  1
.
  9
$ELEVATION
 40
0.0
  9
$PELEVATION
 40
0.0
  9
$THICKNESS
 40
0.0
  9
$LIMCHECK
 70
     0
  9
$CHAMFERA
 40
0.5
  9
$CHAMFERB
 40
0.5
  9
$CHAMFERC
 40
1.0
  9
$CHAMFERD
 40
0.0
  9
$SKPOLY
 70
     0
  9
$TDCREATE
 40
2455967.407999514
  9
$TDUCREATE
 40
2455966.866332847
  9
$TDUPDATE
 40
2455967.407999525
  9
$TDUUPDATE
 40
2455966.866332859
  9
$TDINDWG
 40
0.0000000116
  9
$TDUSRTIMER
 40
0.0000000116
  9
$USRTIMER
 70
     1
  9
$ANGBASE
 50
0.0
  9
$ANGDIR
 70
     0
  9
$PDMODE
 70
     0
  9
$PDSIZE
 40
0.0
  9
$PLINEWID
 40
0.0
  9
$SPLFRAME
 70
     0
  9
$SPLINETYPE
 70
     6
  9
$SPLINESEGS
 70
     8
  9
$HANDSEED
  5
164
  9
$SURFTAB1
 70
     6
  9
$SURFTAB2
 70
     6
  9
$SURFTYPE
 70
     6
  9
$SURFU
 70
     6
  9
$SURFV
 70
     6
  9
$UCSBASE
  2

  9
$UCSNAME
  2

  9
$UCSORG
 10
0.0
 20
0.0
 30
0.0
  9
$UCSXDIR
 10
1.0
 20
0.0
 30
0.0
  9
$UCSYDIR
 10
0.0
 20
1.0
 30
0.0
  9
$UCSORTHOREF
  2

  9
$UCSORTHOVIEW
 70
     0
  9
$UCSORGTOP
 10
0.0
 20
0.0
 30
0.0
  9
$UCSORGBOTTOM
 10
0.0
 20
0.0
 30
0.0
  9
$UCSORGLEFT
 10
0.0
 20
0.0
 30
0.0
  9
$UCSORGRIGHT
 10
0.0
 20
0.0
 30
0.0
  9
$UCSORGFRONT
 10
0.0
 20
0.0
 30
0.0
  9
$UCSORGBACK
 10
0.0
 20
0.0
 30
0.0
  9
$PUCSBASE
  2

  9
$PUCSNAME
  2

  9
$PUCSORG
 10
0.0
 20
0.0
 30
0.0
  9
$PUCSXDIR
 10
1.0
 20
0.0
 30
0.0
  9
$PUCSYDIR
 10
0.0
 20
1.0
 30
0.0
  9
$PUCSORTHOREF
  2

  9
$PUCSORTHOVIEW
 70
     0
  9
$PUCSORGTOP
 10
0.0
 20
0.0
 30
0.0
  9
$PUCSORGBOTTOM
 10
0.0
 20
0.0
 30
0.0
  9
$PUCSORGLEFT
 10
0.0
 20
0.0
 30
0.0
  9
$PUCSORGRIGHT
 10
0.0
 20
0.0
 30
0.0
  9
$PUCSORGFRONT
 10
0.0
 20
0.0
 30
0.0
  9
$PUCSORGBACK
 10
0.0
 20
0.0
 30
0.0
  9
$USERI1
 70
     0
  9
$USERI2
 70
     0
  9
$USERI3
 70
     0
  9
$USERI4
 70
     0
  9
$USERI5
 70
     0
  9
$USERR1
 40
0.0
  9
$USERR2
 40
0.0
  9
$USERR3
 40
0.0
  9
$USERR4
 40
0.0
  9
$USERR5
 40
0.0
  9
$WORLDVIEW
 70
     1
  9
$SHADEDGE
 70
     3
  9
$SHADEDIF
 70
    70
  9
$TILEMODE
 70
     1
  9
$MAXACTVP
 70
    64
  9
$PINSBASE
 10
0.0
 20
0.0
 30
0.0
  9
$PLIMCHECK
 70
     0
  9
$PEXTMIN
 10
1.000000000000000E+20
 20
1.000000000000000E+20
 30
1.000000000000000E+20
  9
$PEXTMAX
 10
-1.000000000000000E+20
 20
-1.000000000000000E+20
 30
-1.000000000000000E+20
  9
$PLIMMIN
 10
0.0
 20
0.0
  9
$PLIMMAX
 10
12.0
 20
9.0
  9
$UNITMODE
 70
     0
  9
$VISRETAIN
 70
     1
  9
$PLINEGEN
 70
     0
  9
$PSLTSCALE
 70
     1
  9
$TREEDEPTH
 70
  3020
  9
$CMLSTYLE
  2
Standard
  9
$CMLJUST
 70
     0
  9
$CMLSCALE
 40
1.0
  9
$PROXYGRAPHICS
 70
     1
  9
$MEASUREMENT
 70
     0
  9
$CELWEIGHT
370
    -1
  9
$ENDCAPS
280
     0
  9
$JOINSTYLE
280
     0
  9
$LWDISPLAY
290
     1
  9
$INSUNITS
 70
     0
  9
$HYPERLINKBASE
  1

  9
$STYLESHEET
  1

  9
$XEDIT
290
     1
  9
$CEPSNTYPE
380
     0
  9
$PSTYLEMODE
290
     1
  9
$FINGERPRINTGUID
  2
{3DD03E12-FC90-4A16-8AA1-2AE8951CF87B}
  9
$VERSIONGUID
  2
{FAEB1C32-E019-11D5-929B-00C0DF256EC4}
  9
$EXTNAMES
290
     1
  9
$PSVPSCALE
 40
0.0
  9
$OLESTARTUP
290
     0
  9
$SORTENTS
280
   127
  9
$INDEXCTL
280
     0
  9
$HIDETEXT
280
     1
  9
$XCLIPFRAME
290
     0
  9
$HALOGAP
280
     0
  9
$OBSCOLOR
 70
   257
  9
$OBSLTYPE
280
     0
  9
$INTERSECTIONDISPLAY
280
     0
  9
$INTERSECTIONCOLOR
 70
   257
  9
$DIMASSOC
280
     2
  9
$PROJECTNAME
  1

  0
ENDSEC
  0
SECTION
  2
CLASSES
  0
CLASS
  1
ACDBDICTIONARYWDFLT
  2
AcDbDictionaryWithDefault
  3
ObjectDBX Classes
 90
        0
 91
        4
280
     0
281
     0
  0
CLASS
  1
VISUALSTYLE
  2
AcDbVisualStyle
  3
ObjectDBX Classes
 90
     4095
 91
        4
280
     0
281
     0
  0
CLASS
  1
SCALE
  2
AcDbScale
  3
ObjectDBX Classes
 90
     1153
 91
        4
280
     0
281
     0
  0
CLASS
  1
DICTIONARYVAR
  2
AcDbDictionaryVar
  3
ObjectDBX Classes
 90
        0
 91
        4
280
     0
281
     0
  0
ENDSEC
  0
SECTION
  2
TABLES
  0
TABLE
  2
VPORT
  5
8
330
0
100
AcDbSymbolTable
 70
     1
  0
VPORT
  5
29
330
8
100
AcDbSymbolTableRecord
100
AcDbViewportTableRecord
  2
*Active
 70
     0
 10
0.0
 20
0.0
 11
1.0
 21
1.0
 12
92.98075758986221
 22
-126.5622355656956
 13
0.0
 23
0.0
 14
0.5
 24
0.5
 15
0.5
 25
0.5
 16
0.0
 26
0.0
 36
1.0
 17
0.0
 27
0.0
 37
0.0
 40
949.5911817131974
 41
1.007994484634624
 42
50.0
 43
0.0
 44
0.0
 50
0.0
 51
0.0
 71
     0
 72
   100
 73
     1
 74
     3
 75
     0
 76
     0
 77
     0
 78
     0
281
     0
 65
     1
110
0.0
120
0.0
130
0.0
111
1.0
121
0.0
131
0.0
112
0.0
122
1.0
132
0.0
 79
     0
146
0.0
  0
ENDTAB
  0
TABLE
  2
LTYPE
  5
5
330
0
100
AcDbSymbolTable
 70
     3
  0
LTYPE
  5
14
330
5
100
AcDbSymbolTableRecord
100
AcDbLinetypeTableRecord
  2
ByBlock
 70
     0
  3

 72
    65
 73
     0
 40
0.0
  0
LTYPE
  5
15
330
5
100
AcDbSymbolTableRecord
100
AcDbLinetypeTableRecord
  2
ByLayer
 70
     0
  3

 72
    65
 73
     0
 40
0.0
  0
LTYPE
  5
16
330
5
100
AcDbSymbolTableRecord
100
AcDbLinetypeTableRecord
  2
Continuous
 70
     0
  3
Solid line
 72
    65
 73
     0
 40
0.0
  0
LTYPE
  5
62
330
5
100
AcDbSymbolTableRecord
100
AcDbLinetypeTableRecord
  2
DASHEDX2
 70
     0
  3
- - - - - 
 72
    65
 73
     2
 40
7.5
 49
5.0
 74
     0
 49
-2.5
 74
     0
  0
LTYPE
  5
B5
330
5
100
AcDbSymbolTableRecord
100
AcDbLinetypeTableRecord
  2
Dashed
 70
     0
  3
- - - - - 
 72
    65
 73
     2
 40
5.644444465637207
 49
2.822222232818604
 74
     0
 49
-2.822222232818603
 74
     0
  0
ENDTAB
  0
TABLE
  2
LAYER
  5
2
330
0
100
AcDbSymbolTable
 70
    12
  0
LAYER
  5
10
330
2
100
AcDbSymbolTableRecord
100
AcDbLayerTableRecord
  2
0
 70
     0
 62
     7
  6
Continuous
370
    -3
390
F
  0
LAYER
  5
3C
330
2
100
AcDbSymbolTableRecord
100
AcDbLayerTableRecord
  2
chh-254_Pen_No__254_Pen_No__102
 70
     0
 62
   254
420
 13421772
  6
Continuous
370
    13
390
F
  0
LAYER
  5
45
330
2
100
AcDbSymbolTableRecord
100
AcDbLayerTableRecord
  2
chh-09_Pen_No__9_Pen_No__2
 70
     0
 62
     8
420
  8355711
  6
Continuous
370
    15
390
F
  0
LAYER
  5
4C
330
2
100
AcDbSymbolTableRecord
100
AcDbLayerTableRecord
  2
chh-09_Pen_No__9_Pen_No__3
 70
     0
 62
    30
420
 16737792
  6
Continuous
370
    18
390
F
  0
LAYER
  5
52
330
2
100
AcDbSymbolTableRecord
100
AcDbLayerTableRecord
  2
chh-254_Pen_No__254_Pen_No__2
 70
     0
 62
     8
420
  8355711
  6
Continuous
370
    15
390
F
  0
LAYER
  5
54
330
2
100
AcDbSymbolTableRecord
100
AcDbLayerTableRecord
  2
chh-08_Pen_No__8_Pen_No__81
 70
     0
 62
   251
420
  6974058
  6
Continuous
370
    20
390
F
  0
LAYER
  5
58
330
2
100
AcDbSymbolTableRecord
100
AcDbLayerTableRecord
  2
chh-08_Pen_No__8_Pen_No__250
 70
     0
 62
   254
420
 15263976
  6
Continuous
370
    13
390
F
  0
LAYER
  5
64
330
2
100
AcDbSymbolTableRecord
100
AcDbLayerTableRecord
  2
chh-08_Pen_No__8_Pen_No__61
 70
     0
 62
   251
420
  6974058
  6
Continuous
370
    20
390
F
  0
LAYER
  5
75
330
2
100
AcDbSymbolTableRecord
100
AcDbLayerTableRecord
  2
chh-07_Pen_No__7_Pen_No__7
 70
     0
 62
     7
  6
Continuous
370
    35
390
F
  0
LAYER
  5
82
330
2
100
AcDbSymbolTableRecord
100
AcDbLayerTableRecord
  2
chh-05_Pen_No__7_Pen_No__7
 70
     0
 62
     7
  6
Continuous
370
    35
390
F
  0
LAYER
  5
122
330
2
100
AcDbSymbolTableRecord
100
AcDbLayerTableRecord
  2
chh-txt_Pen_No__7_Pen_No__7
 70
     0
 62
     7
  6
Continuous
370
    35
390
F
  0
LAYER
  5
15A
330
2
100
AcDbSymbolTableRecord
100
AcDbLayerTableRecord
  2
Defpoints_Pen_No__211_Pen_No__115
 70
     0
 62
   211
420
 16738047
  6
Continuous
370
    13
390
F
  0
ENDTAB
  0
TABLE
  2
STYLE
  5
3
330
0
100
AcDbSymbolTable
 70
     2
  0
STYLE
  5
11
330
3
100
AcDbSymbolTableRecord
100
AcDbTextStyleTableRecord
  2
Standard
 70
     0
 40
0.0
 41
1.0
 50
0.0
 71
     0
 42
0.2
  3
txt
  4
BIGFONT.SHX
  0
STYLE
  5
120
330
3
100
AcDbSymbolTableRecord
100
AcDbTextStyleTableRecord
  2
GENERATED_STYLE_1
 70
     0
 40
0.0
 41
1.0
 50
0.0
 71
     0
 42
0.2
  3

  4

1001
ACAD
1000
Arial Unicode MS
1071
       34
  0
ENDTAB
  0
TABLE
  2
VIEW
  5
6
330
0
100
AcDbSymbolTable
 70
     0
  0
ENDTAB
  0
TABLE
  2
UCS
  5
7
330
0
100
AcDbSymbolTable
 70
     0
  0
ENDTAB
  0
TABLE
  2
APPID
  5
9
330
0
100
AcDbSymbolTable
 70
     1
  0
APPID
  5
12
330
9
100
AcDbSymbolTableRecord
100
AcDbRegAppTableRecord
  2
ACAD
 70
     0
  0
ENDTAB
  0
TABLE
  2
DIMSTYLE
  5
A
330
0
100
AcDbSymbolTable
 70
     1
100
AcDbDimStyleTable
  0
DIMSTYLE
105
27
330
A
100
AcDbSymbolTableRecord
100
AcDbDimStyleTableRecord
  2
Standard
 70
     0
340
11
  0
ENDTAB
  0
TABLE
  2
BLOCK_RECORD
  5
1
330
0
100
AcDbSymbolTable
 70
     2
  0
BLOCK_RECORD
  5
1F
330
1
100
AcDbSymbolTableRecord
100
AcDbBlockTableRecord
  2
*Model_Space
340
22
  0
BLOCK_RECORD
  5
1B
330
1
100
AcDbSymbolTableRecord
100
AcDbBlockTableRecord
  2
*Paper_Space
340
1E
  0
BLOCK_RECORD
  5
23
330
1
100
AcDbSymbolTableRecord
100
AcDbBlockTableRecord
  2
*Paper_Space0
340
26
  0
BLOCK_RECORD
  5
15B
330
1
100
AcDbSymbolTableRecord
100
AcDbBlockTableRecord
  2
Untitled _STORY_MARKER
340
0
  0
ENDTAB
  0
ENDSEC
  0
SECTION
  2
BLOCKS
  0
BLOCK
  5
20
330
1F
100
AcDbEntity
  8
0
100
AcDbBlockBegin
  2
*Model_Space
 70
     0
 10
0.0
 20
0.0
 30
0.0
  3
*Model_Space
  1

  0
ENDBLK
  5
21
330
1F
100
AcDbEntity
  8
0
100
AcDbBlockEnd
  0
BLOCK
  5
1C
330
1B
100
AcDbEntity
 67
     1
  8
0
100
AcDbBlockBegin
  2
*Paper_Space
 70
     0
 10
0.0
 20
0.0
 30
0.0
  3
*Paper_Space
  1

  0
ENDBLK
  5
1D
330
1B
100
AcDbEntity
 67
     1
  8
0
100
AcDbBlockEnd
  0
BLOCK
  5
24
330
23
100
AcDbEntity
  8
0
100
AcDbBlockBegin
  2
*Paper_Space0
 70
     0
 10
0.0
 20
0.0
 30
0.0
  3
*Paper_Space0
  1

  0
ENDBLK
  5
25
330
23
100
AcDbEntity
  8
0
100
AcDbBlockEnd
  0
BLOCK
  5
15C
330
15B
100
AcDbEntity
  8
0
100
AcDbBlockBegin
  2
Untitled _STORY_MARKER
 70
     0
 10
0.0
 20
0.0
 30
0.0
  3
Untitled _STORY_MARKER
  1

  0
ENDBLK
  5
15D
330
15B
100
AcDbEntity
  8
0
100
AcDbBlockEnd
  0
ENDSEC
  0
SECTION
  2
ENTITIES
  0
HATCH
  5
3B
330
1F
100
AcDbEntity
  8
chh-254_Pen_No__254_Pen_No__102
  6
Continuous
100
AcDbHatch
 10
0.0
 20
0.0
 30
0.0
210
0.0
220
0.0
230
1.0
  2
SOLID
 70
     1
 71
     0
 91
        1
 92
        2
 72
     0
 73
     1
 93
        7
 10
152.7635918881673
 20
-276.6987390957553
 10
139.2918989998304
 20
-281.0949352566946
 10
139.2918989998304
 20
-288.5214120438218
 10
191.8377674754794
 20
-318.8587833530482
 10
191.8377674754794
 20
-358.1731566683336
 10
204.2595351755605
 20
-365.3448675937864
 10
204.2595351755552
 20
-306.4299358149082
 97
        0
 75
     0
 76
     1
 98
        0
  0
HATCH
  5
3D
330
1F
100
AcDbEntity
  8
chh-254_Pen_No__254_Pen_No__102
  6
Continuous
100
AcDbHatch
 10
0.0
 20
0.0
 30
0.0
210
0.0
220
0.0
230
1.0
  2
SOLID
 70
     1
 71
     0
 91
        1
 92
        2
 72
     1
 73
     1
 93
        5
 10
259.8907028618165
 20
-403.8450448792287
 42
0.0
 10
252.45954574039
 20
-399.5546643147828
 42
0.0
 10
252.45954574039
 20
-559.7731127928952
 42
0.0
 10
279.8715470004185
 20
-575.5994390994069
 42
0.0
 10
277.9865585202883
 20
-564.2403908937322
 42
-0.0359258729778042
 97
        0
 75
     0
 76
     1
 98
        0
  0
HATCH
  5
3E
330
1F
100
AcDbEntity
  8
chh-254_Pen_No__254_Pen_No__102
  6
Continuous
100
AcDbHatch
 10
0.0
 20
0.0
 30
0.0
210
0.0
220
0.0
230
1.0
  2
SOLID
 70
     1
 71
     0
 91
        1
 92
        2
 72
     0
 73
     1
 93
        4
 10
238.6877322401928
 20
-346.6035040832066
 10
258.9673343529875
 20
-358.3119378220875
 10
336.909620693586
 20
-313.3119378220875
 10
316.6300185808419
 20
-301.6035040832364
 97
        0
 75
     0
 76
     1
 98
        0
  0
HATCH
  5
3F
330
1F
100
AcDbEntity
  8
chh-254_Pen_No__254_Pen_No__102
  6
Continuous
100
AcDbHatch
 10
0.0
 20
0.0
 30
0.0
210
0.0
220
0.0
230
1.0
  2
SOLID
 70
     1
 71
     0
 91
        1
 92
        2
 72
     0
 73
     1
 93
        4
 10
329.5030917054611
 20
-265.5594047715674
 10
278.0071484180759
 20
-235.8282080524149
 10
152.7635918881673
 20
-276.6987390957553
 10
204.2595351755552
 20
-306.4299358149082
 97
        0
 75
     0
 76
     1
 98
        0
  0
HATCH
  5
40
330
1F
100
AcDbEntity
  8
chh-254_Pen_No__254_Pen_No__102
  6
Continuous
100
AcDbHatch
 10
0.0
 20
0.0
 30
0.0
210
0.0
220
0.0
230
1.0
  2
SOLID
 70
     1
 71
     0
 91
        1
 92
        2
 72
     0
 73
     1
 93
        4
 10
117.7719373975538
 20
-322.0915350662582
 10
139.2918989998304
 20
-334.5160906902848
 10
139.2918989998304
 20
-281.0949352566946
 10
117.7719373975538
 20
-268.670379632668
 97
        0
 75
     0
 76
     1
 98
        0
  0
HATCH
  5
41
330
1F
100
AcDbEntity
  8
chh-254_Pen_No__254_Pen_No__102
  6
Continuous
100
AcDbHatch
 10
0.0
 20
0.0
 30
0.0
210
0.0
220
0.0
230
1.0
  2
SOLID
 70
     1
 71
     0
 91
        1
 92
        2
 72
     0
 73
     1
 93
        5
 10
117.7719373975538
 20
-268.0775007819992
 10
117.7719373975538
 20
-268.670379632668
 10
139.2918989998304
 20
-281.0949352566946
 10
287.5114623018808
 20
-232.726680385872
 10
265.3354280685465
 20
-219.9233410516953
 97
        0
 75
     0
 76
     1
 98
        0
  0
HATCH
  5
42
330
1F
100
AcDbEntity
  8
chh-254_Pen_No__254_Pen_No__102
  6
Continuous
100
AcDbHatch
 10
0.0
 20
0.0
 30
0.0
210
0.0
220
0.0
230
1.0
  2
SOLID
 70
     1
 71
     0
 91
        1
 92
        2
 72
     1
 73
     1
 93
        4
 10
258.9673343529866
 20
-358.3119378220875
 42
0.0
 10
252.459545740382
 20
-354.5546643147709
 42
0.0
 10
252.459545740382
 20
-399.5546643147788
 42
0.0
 10
259.7541839692286
 20
-403.7662256598441
 42
-0.0086547465044994
 97
        0
 75
     0
 76
     1
 98
        0
  0
HATCH
  5
43
330
1F
100
AcDbEntity
  8
chh-254_Pen_No__254_Pen_No__102
  6
Continuous
100
AcDbHatch
 10
0.0
 20
0.0
 30
0.0
210
0.0
220
0.0
230
1.0
  2
SOLID
 70
     1
 71
     0
 91
        1
 92
        2
 72
     0
 73
     1
 93
       16
 10
276.8066924874033
 20
268.0234795546125
 10
276.8066924874131
 20
338.9236378231267
 10
-376.2264354613316
 20
-38.1052143878281
 10
-376.2264354614018
 20
-535.6376811754332
 10
-347.1026031669833
 20
-518.8230287604191
 10
-347.1026031669842
 20
-92.190720241358
 10
-156.1735210121798
 20
18.04223673684657
 10
-156.1735210121798
 20
69.91102047249831
 10
-117.2023778418792
 20
92.41102047249828
 10
-95.55174274726832
 20
79.91102047249854
 10
-95.55174274726832
 20
53.04223673684672
 10
38.68219483932142
 20
130.5422367368477
 10
38.68219483932142
 20
182.4110204724999
 10
77.65333800962112
 20
204.9110204724999
 10
99.30397310423197
 20
192.4110204724997
 10
99.30397310423197
 20
165.5422367368479
 97
        0
 75
     0
 76
     1
 98
        0
  0
HATCH
  5
44
330
1F
100
AcDbEntity
  8
chh-09_Pen_No__9_Pen_No__2
  6
Continuous
100
AcDbHatch
 10
0.0
 20
0.0
 30
0.0
210
0.0
220
0.0
230
1.0
  2
SOLID
 70
     1
 71
     0
 91
        1
 92
        2
 72
     0
 73
     1
 93
        3
 10
-9.018664674163707
 20
181.7123991093391
 10
-9.01866467416282
 20
184.5123979069864
 10
-17.41866106710413
 20
183.1123985081643
 97
        0
 75
     0
 76
     1
 98
        0
  0
HATCH
  5
46
330
1F
100
AcDbEntity
  8
chh-09_Pen_No__9_Pen_No__2
  6
Continuous
100
AcDbHatch
 10
0.0
 20
0.0
 30
0.0
210
0.0
220
0.0
230
1.0
  2
SOLID
 70
     1
 71
     0
 91
        1
 92
        2
 72
     0
 73
     1
 93
        3
 10
67.64848468453464
 20
151.3982315567116
 10
67.64848468453552
 20
154.1982303543593
 10
59.24848829159421
 20
152.7982309555368
 97
        0
 75
     0
 76
     1
 98
        0
  0
HATCH
  5
47
330
1F
100
AcDbEntity
  8
chh-09_Pen_No__9_Pen_No__2
  6
Continuous
100
AcDbHatch
 10
0.0
 20
0.0
 30
0.0
210
0.0
220
0.0
230
1.0
  2
SOLID
 70
     1
 71
     0
 91
        1
 92
        2
 72
     0
 73
     1
 93
        3
 10
187.499821381411
 20
116.3304555869852
 10
187.4998213814118
 20
119.1304543846329
 10
179.0998249884705
 20
117.7304549858104
 97
        0
 75
     0
 76
     1
 98
        0
  0
HATCH
  5
48
330
1F
100
AcDbEntity
  8
chh-09_Pen_No__9_Pen_No__2
  6
Continuous
100
AcDbHatch
 10
0.0
 20
0.0
 30
0.0
210
0.0
220
0.0
230
1.0
  2
SOLID
 70
     1
 71
     0
 91
        1
 92
        2
 72
     0
 73
     1
 93
        3
 10
123.1427938089766
 20
-47.35112592652369
 10
123.1427938089775
 20
-44.55112712887643
 10
114.742797416038
 20
-45.95112652769806
 97
        0
 75
     0
 76
     1
 98
        0
  0
HATCH
  5
49
330
1F
100
AcDbEntity
  8
chh-09_Pen_No__9_Pen_No__2
  6
Continuous
100
AcDbHatch
 10
0.0
 20
0.0
 30
0.0
210
0.0
220
0.0
230
1.0
  2
SOLID
 70
     1
 71
     0
 91
        1
 92
        2
 72
     0
 73
     1
 93
        3
 10
87.11930235736907
 20
-133.7695746867452
 10
87.11930235736995
 20
-130.969575889098
 10
78.71930596442864
 20
-132.3695752879196
 97
        0
 75
     0
 76
     1
 98
        0
  0
HATCH
  5
4A
330
1F
100
AcDbEntity
  8
chh-09_Pen_No__9_Pen_No__2
  6
Continuous
100
AcDbHatch
 10
0.0
 20
0.0
 30
0.0
210
0.0
220
0.0
230
1.0
  2
SOLID
 70
     1
 71
     0
 91
        1
 92
        2
 72
     0
 73
     1
 93
        3
 10
152.8711512343437
 20
-198.1122761256871
 10
152.8711512343446
 20
-195.3122773280395
 10
144.471154841405
 20
-196.7122767268615
 97
        0
 75
     0
 76
     1
 98
        0
  0
HATCH
  5
4B
330
1F
100
AcDbEntity
  8
chh-09_Pen_No__9_Pen_No__3
  6
Continuous
100
AcDbHatch
 10
0.0
 20
0.0
 30
0.0
210
0.0
220
0.0
230
1.0
  2
SOLID
 70
     1
 71
     0
 91
        1
 92
        2
 72
     0
 73
     1
 93
        3
 10
181.8563090663449
 20
-242.1139428191056
 10
181.8563090663458
 20
-239.3139440214588
 10
173.4563126734063
 20
-240.7139434202804
 97
        0
 75
     0
 76
     1
 98
        0
  0
HATCH
  5
4D
330
1F
100
AcDbEntity
  8
chh-09_Pen_No__9_Pen_No__2
  6
Continuous
100
AcDbHatch
 10
0.0
 20
0.0
 30
0.0
210
0.0
220
0.0
230
1.0
  2
SOLID
 70
     1
 71
     0
 91
        1
 92
        2
 72
     0
 73
     1
 93
        3
 10
288.1352033222211
 20
-308.9724268260746
 10
288.135203322222
 20
-306.1724280284274
 10
279.7352069292816
 20
-307.572427427249
 97
        0
 75
     0
 76
     1
 98
        0
  0
HATCH
  5
4E
330
1F
100
AcDbEntity
  8
chh-09_Pen_No__9_Pen_No__2
  6
Continuous
100
AcDbHatch
 10
0.0
 20
0.0
 30
0.0
210
0.0
220
0.0
230
1.0
  2
SOLID
 70
     1
 71
     0
 91
        1
 92
        2
 72
     0
 73
     1
 93
        3
 10
241.3130239170826
 20
-445.0519960628883
 10
241.3130239170835
 20
-442.2519972652411
 10
232.9130275241422
 20
-443.6519966640627
 97
        0
 75
     0
 76
     1
 98
        0
  0
HATCH
  5
4F
330
1F
100
AcDbEntity
  8
chh-09_Pen_No__9_Pen_No__2
  6
Continuous
100
AcDbHatch
 10
0.0
 20
0.0
 30
0.0
210
0.0
220
0.0
230
1.0
  2
SOLID
 70
     1
 71
     0
 91
        1
 92
        2
 72
     0
 73
     1
 93
        3
 10
397.3869137463588
 20
-376.5742542793416
 10
397.3869137463615
 20
-373.7742554816944
 10
388.9869173534193
 20
-375.1742548805161
 97
        0
 75
     0
 76
     1
 98
        0
  0
HATCH
  5
50
330
1F
100
AcDbEntity
  8
chh-09_Pen_No__9_Pen_No__2
  6
Continuous
100
AcDbHatch
 10
0.0
 20
0.0
 30
0.0
210
0.0
220
0.0
230
1.0
  2
SOLID
 70
     1
 71
     0
 91
        1
 92
        2
 72
     0
 73
     1
 93
        3
 10
279.4052908251728
 20
-537.9277328820485
 10
279.4052908251736
 20
-535.1277340844013
 10
271.0052944322323
 20
-536.527733483223
 97
        0
 75
     0
 76
     1
 98
        0
  0
LINE
  5
51
330
1F
100
AcDbEntity
  8
chh-254_Pen_No__254_Pen_No__2
  6
Continuous
100
AcDbLine
 10
217.0370971455668
 20
-359.1035040831988
 30
0.0
 11
338.2806536754661
 21
-289.1035040832447
 31
0.0
  0
LINE
  5
53
330
1F
100
AcDbEntity
  8
chh-08_Pen_No__8_Pen_No__81
  6
Continuous
100
AcDbLine
 10
386.3037652469805
 20
-341.8296604763821
 30
0.0
 11
308.3614789063829
 21
-431.8296604763819
 31
0.0
  0
LINE
  5
55
330
1F
100
AcDbEntity
  8
chh-08_Pen_No__8_Pen_No__81
  6
Continuous
100
AcDbLine
 10
386.3037652469805
 20
-386.8296604763825
 30
0.0
 11
308.3614789063829
 21
-386.829660476382
 31
0.0
  0
LINE
  5
56
330
1F
100
AcDbEntity
  8
chh-08_Pen_No__8_Pen_No__81
  6
Continuous
100
AcDbLine
 10
252.459545740382
 20
-399.5546643147713
 30
0.0
 11
230.8089106457711
 21
-367.0546643147715
 31
0.0
  0
LINE
  5
57
330
1F
100
AcDbEntity
  8
chh-08_Pen_No__8_Pen_No__250
  6
Continuous
100
AcDbLine
 10
336.909620693586
 20
-313.311937822088
 30
0.0
 11
258.9673343529866
 21
-358.3119378220879
 31
0.0
  0
LINE
  5
59
330
1F
100
AcDbEntity
  8
chh-08_Pen_No__8_Pen_No__81
  6
Continuous
100
AcDbLine
 10
329.5030917054611
 20
-265.5594047715674
 30
0.0
 11
278.0071484180759
 21
-235.8282080524149
 31
0.0
  0
LINE
  5
5A
330
1F
100
AcDbEntity
  8
chh-08_Pen_No__8_Pen_No__81
  6
Continuous
100
AcDbLine
 10
204.2595351755542
 20
-306.4299358149078
 30
0.0
 11
152.7635918881673
 21
-276.6987390957553
 31
0.0
  0
LINE
  5
5B
330
1F
100
AcDbEntity
  8
chh-08_Pen_No__8_Pen_No__81
  6
Continuous
100
AcDbLine
 10
-156.1735210121762
 20
197.9737695382108
 30
0.0
 11
-39.26009150127799
 21
175.4737695382108
 31
0.0
  0
LINE
  5
5C
330
1F
100
AcDbEntity
  8
chh-08_Pen_No__8_Pen_No__81
  6
Continuous
100
AcDbLine
 10
-117.2023778418774
 20
220.4737695382107
 30
0.0
 11
-78.2312346715777
 21
152.9737695382109
 31
0.0
  0
LINE
  5
5D
330
1F
100
AcDbEntity
  8
chh-08_Pen_No__8_Pen_No__81
  6
Continuous
100
AcDbLine
 10
-117.2023778418774
 20
220.4737695382107
 30
0.0
 11
-0.2889483309782837
 21
197.9737695382108
 31
0.0
  0
LINE
  5
5E
330
1F
100
AcDbEntity
  8
chh-08_Pen_No__8_Pen_No__81
  6
Continuous
100
AcDbLine
 10
-78.2312346715777
 20
242.9737695382116
 30
0.0
 11
-39.26009150127799
 21
175.4737695382108
 31
0.0
  0
LINE
  5
5F
330
1F
100
AcDbEntity
  8
chh-08_Pen_No__8_Pen_No__81
  6
Continuous
100
AcDbLine
 10
-376.2264354613343
 20
-38.10521438782988
 30
0.0
 11
276.8066924874131
 21
338.9236378231267
 31
0.0
  0
LINE
  5
60
330
1F
100
AcDbEntity
  8
chh-08_Pen_No__8_Pen_No__81
  6
Continuous
100
AcDbLine
 10
-376.2264354613316
 20
-38.10521438783254
 30
0.0
 11
-376.2264354614018
 21
-535.6376811754336
 31
0.0
  0
LINE
  5
61
330
1F
100
AcDbEntity
  8
chh-08_Pen_No__8_Pen_No__81
  6
Continuous
100
AcDbLine
 10
276.8066924874131
 20
338.9236378231267
 30
0.0
 11
276.8066924874033
 21
268.0234795546129
 31
0.0
  0
LINE
  5
63
330
1F
100
AcDbEntity
  8
chh-08_Pen_No__8_Pen_No__61
  6
DASHEDX2
100
AcDbLine
 10
-16.58593316131521
 20
-245.158562414073
 30
0.0
 11
-89.19269365065111
 21
-203.2390297005681
 31
0.0
  0
LINE
  5
65
330
1F
100
AcDbEntity
  8
chh-08_Pen_No__8_Pen_No__61
  6
DASHEDX2
100
AcDbLine
 10
-141.8189831193127
 20
-98.9543741661042
 30
0.0
 11
113.989010687398
 21
46.27162579249433
 31
0.0
  0
LINE
  5
66
330
1F
100
AcDbEntity
  8
chh-08_Pen_No__8_Pen_No__61
  6
DASHEDX2
100
AcDbLine
 10
-16.58593316131432
 20
-199.0575582840041
 30
0.0
 11
-16.58593316131521
 21
-245.1585624140725
 31
0.0
  0
LINE
  5
67
330
1F
100
AcDbEntity
  8
chh-08_Pen_No__8_Pen_No__61
  6
DASHEDX2
100
AcDbLine
 10
-16.58593316131432
 20
-199.0575582840036
 30
0.0
 11
142.6181343814978
 21
-147.1047475764976
 31
0.0
  0
LINE
  5
68
330
1F
100
AcDbEntity
  8
chh-08_Pen_No__8_Pen_No__61
  6
DASHEDX2
100
AcDbLine
 10
142.6181343814978
 20
-147.1047475764976
 30
0.0
 11
142.6181343814969
 21
-193.2057517065665
 31
0.0
  0
LINE
  5
69
330
1F
100
AcDbEntity
  8
chh-08_Pen_No__8_Pen_No__61
  6
DASHEDX2
100
AcDbLine
 10
-16.58593316131432
 20
-199.0575582840041
 30
0.0
 11
-89.19269365065554
 21
-157.1380255704956
 31
0.0
  0
LINE
  5
6A
330
1F
100
AcDbEntity
  8
chh-08_Pen_No__8_Pen_No__61
  6
DASHEDX2
100
AcDbLine
 10
142.6181343814969
 20
-193.2057517065665
 30
0.0
 11
70.01137389215658
 21
-151.2862189930594
 31
0.0
  0
LINE
  5
6B
330
1F
100
AcDbEntity
  8
chh-08_Pen_No__8_Pen_No__61
  6
DASHEDX2
100
AcDbLine
 10
142.6181343814978
 20
-147.1047475764976
 30
0.0
 11
70.01137389215658
 21
-105.1852148629896
 31
0.0
  0
LINE
  5
6C
330
1F
100
AcDbEntity
  8
chh-08_Pen_No__8_Pen_No__61
  6
DASHEDX2
100
AcDbLine
 10
113.989010687398
 20
46.27162579249433
 30
0.0
 11
113.9890106873935
 21
-126.2625254023678
 31
0.0
  0
LINE
  5
6D
330
1F
100
AcDbEntity
  8
chh-08_Pen_No__8_Pen_No__61
  6
DASHEDX2
100
AcDbLine
 10
70.01137389215658
 20
-151.2862189930594
 30
0.0
 11
70.01137389215658
 21
-105.1852148629896
 31
0.0
  0
LINE
  5
6E
330
1F
100
AcDbEntity
  8
chh-08_Pen_No__8_Pen_No__61
  6
DASHEDX2
100
AcDbLine
 10
-89.19269365065554
 20
-157.1380255704956
 30
0.0
 11
70.01137389215658
 21
-105.1852148629896
 31
0.0
  0
LINE
  5
6F
330
1F
100
AcDbEntity
  8
chh-08_Pen_No__8_Pen_No__61
  6
DASHEDX2
100
AcDbLine
 10
70.01137389215658
 20
-151.2862189930594
 30
0.0
 11
113.9890106873935
 21
-126.2625254023678
 31
0.0
  0
LINE
  5
70
330
1F
100
AcDbEntity
  8
chh-08_Pen_No__8_Pen_No__250
  6
Continuous
100
AcDbLine
 10
287.5114623018808
 20
-232.726680385872
 30
0.0
 11
265.3354280685465
 21
-219.9233410516953
 31
0.0
  0
LINE
  5
71
330
1F
100
AcDbEntity
  8
chh-08_Pen_No__8_Pen_No__81
  6
Continuous
100
AcDbLine
 10
-376.2264354614018
 20
-535.6376811754332
 30
0.0
 11
-347.1026031669815
 21
-518.8230287604177
 31
0.0
  0
LINE
  5
72
330
1F
100
AcDbEntity
  8
chh-08_Pen_No__8_Pen_No__61
  6
DASHEDX2
100
AcDbLine
 10
-141.8189831193118
 20
-98.9543741661042
 30
0.0
 11
-141.8189831193135
 21
-233.1157563753886
 31
0.0
  0
LINE
  5
73
330
1F
100
AcDbEntity
  8
chh-08_Pen_No__8_Pen_No__61
  6
DASHEDX2
100
AcDbLine
 10
-141.8189831193135
 20
-233.1157563753882
 30
0.0
 11
-89.19269365065111
 21
-203.2390297005681
 31
0.0
  0
LINE
  5
74
330
1F
100
AcDbEntity
  8
chh-07_Pen_No__7_Pen_No__7
  6
Continuous
100
AcDbLine
 10
181.4454626300652
 20
-555.7731127929108
 30
0.0
 11
181.4454626300661
 21
-324.8587833530484
 31
0.0
  0
LINE
  5
76
330
1F
100
AcDbEntity
  8
chh-07_Pen_No__7_Pen_No__7
  6
Continuous
100
AcDbLine
 10
181.4454626300661
 20
-324.8587833530484
 30
0.0
 11
191.8377674754794
 21
-318.8587833530482
 31
0.0
  0
LINE
  5
77
330
1F
100
AcDbEntity
  8
chh-07_Pen_No__7_Pen_No__7
  6
Continuous
100
AcDbLine
 10
191.8377674754794
 20
-318.8587833530482
 30
0.0
 11
191.8377674754785
 21
-549.773112792911
 31
0.0
  0
LINE
  5
78
330
1F
100
AcDbEntity
  8
chh-07_Pen_No__7_Pen_No__7
  6
Continuous
100
AcDbLine
 10
181.4454626300661
 20
-324.8587833530484
 30
0.0
 11
153.163605485614
 21
-308.5302455175082
 31
0.0
  0
LINE
  5
79
330
1F
100
AcDbEntity
  8
chh-07_Pen_No__7_Pen_No__7
  6
Continuous
100
AcDbLine
 10
144.5033514477691
 20
-303.5302455175083
 30
0.0
 11
139.2918989998304
 21
-300.521412043821
 31
0.0
  0
LINE
  5
7A
330
1F
100
AcDbEntity
  8
chh-07_Pen_No__7_Pen_No__7
  6
Continuous
100
AcDbLine
 10
191.8377674754794
 20
-318.8587833530482
 30
0.0
 11
139.2918989998304
 21
-288.5214120438218
 31
0.0
  0
LINE
  5
7B
330
1F
100
AcDbEntity
  8
chh-07_Pen_No__7_Pen_No__7
  6
Continuous
100
AcDbLine
 10
14.59954088010226
 20
-282.3879081503658
 30
0.0
 11
14.59954088010315
 21
-459.4445749573713
 31
0.0
  0
LINE
  5
7C
330
1F
100
AcDbEntity
  8
chh-07_Pen_No__7_Pen_No__7
  6
Continuous
100
AcDbLine
 10
23.25979491794714
 20
-287.3879081503657
 30
0.0
 11
23.25979491794714
 21
-464.4445749573712
 31
0.0
  0
LINE
  5
7D
330
1F
100
AcDbEntity
  8
chh-07_Pen_No__7_Pen_No__7
  6
Continuous
100
AcDbLine
 10
18.92966789902426
 20
-284.8879081503662
 30
0.0
 11
18.92966789902514
 21
-456.9445749573714
 31
0.0
  0
LINE
  5
7E
330
1F
100
AcDbEntity
  8
chh-07_Pen_No__7_Pen_No__7
  6
Continuous
100
AcDbLine
 10
144.5033514477691
 20
-303.5302455175083
 30
0.0
 11
144.5033514477691
 21
-534.444574957372
 31
0.0
  0
LINE
  5
7F
330
1F
100
AcDbEntity
  8
chh-07_Pen_No__7_Pen_No__7
  6
Continuous
100
AcDbLine
 10
153.163605485614
 20
-308.5302455175082
 30
0.0
 11
153.1636054856131
 21
-539.4445749573714
 31
0.0
  0
LINE
  5
80
330
1F
100
AcDbEntity
  8
chh-07_Pen_No__7_Pen_No__7
  6
Continuous
100
AcDbLine
 10
148.8334784666929
 20
-301.0302455175083
 30
0.0
 11
148.833478466692
 21
-531.9445749573712
 31
0.0
  0
LINE
  5
81
330
1F
100
AcDbEntity
  8
chh-05_Pen_No__7_Pen_No__7
  6
Continuous
100
AcDbLine
 10
308.3614789063838
 20
-386.8296604763825
 30
0.0
 11
238.6877322401928
 21
-346.6035040832066
 31
0.0
  0
LINE
  5
83
330
1F
100
AcDbEntity
  8
chh-05_Pen_No__7_Pen_No__7
  6
Continuous
100
AcDbLine
 10
308.3614789063687
 20
-431.8296604763806
 30
0.0
 11
252.459545740382
 21
-399.5546643147788
 31
0.0
  0
LINE
  5
84
330
1F
100
AcDbEntity
  8
chh-05_Pen_No__7_Pen_No__7
  6
Continuous
100
AcDbLine
 10
386.3037652469814
 20
-341.8296604763821
 30
0.0
 11
316.6300185808419
 21
-301.6035040832364
 31
0.0
  0
LINE
  5
85
330
1F
100
AcDbEntity
  8
chh-07_Pen_No__7_Pen_No__7
  6
Continuous
100
AcDbLine
 10
144.5033514477691
 20
-534.444574957372
 30
0.0
 11
23.25979491794714
 21
-464.4445749573717
 31
0.0
  0
LINE
  5
86
330
1F
100
AcDbEntity
  8
chh-07_Pen_No__7_Pen_No__7
  6
Continuous
100
AcDbLine
 10
14.59954088010315
 20
-459.4445749573723
 30
0.0
 11
-78.80038880523601
 21
-405.5201004112491
 31
0.0
  0
LINE
  5
87
330
1F
100
AcDbEntity
  8
chh-05_Pen_No__7_Pen_No__7
  6
Continuous
100
AcDbLine
 10
308.3614789063829
 20
-431.8296604763819
 30
0.0
 11
308.3614789063829
 21
-592.0481089545178
 31
0.0
  0
LINE
  5
88
330
1F
100
AcDbEntity
  8
chh-05_Pen_No__7_Pen_No__7
  6
Continuous
100
AcDbLine
 10
386.3037652469823
 20
-386.829660476382
 30
0.0
 11
386.3037652469823
 21
-547.0481089545189
 31
0.0
  0
LINE
  5
89
330
1F
100
AcDbEntity
  8
chh-05_Pen_No__7_Pen_No__7
  6
Continuous
100
AcDbLine
 10
230.8089106457711
 20
-412.054664314771
 30
0.0
 11
191.8377674754785
 21
-389.5546643147835
 31
0.0
  0
LINE
  5
8A
330
1F
100
AcDbEntity
  8
chh-05_Pen_No__7_Pen_No__7
  6
Continuous
100
AcDbLine
 10
230.8089106457711
 20
-367.0546643147715
 30
0.0
 11
204.2595351755587
 21
-351.7263752402359
 31
0.0
  0
LINE
  5
8B
330
1F
100
AcDbEntity
  8
chh-05_Pen_No__7_Pen_No__7
  6
Continuous
100
AcDbLine
 10
230.8089106457791
 20
-412.0546643147835
 30
0.0
 11
230.8089106457791
 21
-572.2731127929113
 31
0.0
  0
LINE
  5
8C
330
1F
100
AcDbEntity
  8
chh-05_Pen_No__7_Pen_No__7
  6
Continuous
100
AcDbLine
 10
252.45954574039
 20
-399.5546643147833
 30
0.0
 11
252.45954574039
 21
-559.7731127929112
 31
0.0
  0
LINE
  5
8D
330
1F
100
AcDbEntity
  8
chh-05_Pen_No__7_Pen_No__7
  6
Continuous
100
AcDbLine
 10
352.0524671756002
 20
-297.0546643147761
 30
0.0
 11
338.280653675467
 21
-289.1035040832447
 31
0.0
  0
LINE
  5
8E
330
1F
100
AcDbEntity
  8
chh-05_Pen_No__7_Pen_No__7
  6
Continuous
100
AcDbLine
 10
217.0370971455588
 20
-314.1035040832037
 30
0.0
 11
204.2595351755552
 21
-306.7263752402421
 31
0.0
  0
LINE
  5
8F
330
1F
100
AcDbEntity
  8
chh-05_Pen_No__7_Pen_No__7
  6
Continuous
100
AcDbLine
 10
338.2806536754661
 20
-274.5382866919414
 30
0.0
 11
325.1750553899327
 21
-266.9717659939049
 31
0.0
  0
LINE
  5
90
330
1F
100
AcDbEntity
  8
chh-05_Pen_No__7_Pen_No__7
  6
Continuous
100
AcDbLine
 10
269.3903357360814
 20
-409.32966047639
 30
0.0
 11
269.3903357360814
 21
-523.4423359817957
 31
0.0
  0
LINE
  5
91
330
1F
100
AcDbEntity
  8
chh-07_Pen_No__7_Pen_No__7
  6
Continuous
100
AcDbLine
 10
9.225896989525333
 20
101.5356352439355
 30
0.0
 11
9.225896989525333
 21
-102.657550556961
 31
0.0
  0
LINE
  5
92
330
1F
100
AcDbEntity
  8
chh-07_Pen_No__7_Pen_No__7
  6
Continuous
100
AcDbLine
 10
4.89576997060423
 20
104.0356352439359
 30
0.0
 11
4.895769970606007
 21
-100.1575505569575
 31
0.0
  0
LINE
  5
93
330
1F
100
AcDbEntity
  8
chh-07_Pen_No__7_Pen_No__7
  6
Continuous
100
AcDbLine
 10
0.5656429516795736
 20
96.53563524393472
 30
0.0
 11
0.5656429516804617
 21
-105.4836375134774
 31
0.0
  0
LINE
  5
94
330
1F
100
AcDbEntity
  8
chh-07_Pen_No__7_Pen_No__7
  6
Continuous
100
AcDbLine
 10
-336.7102983215717
 20
-98.19072024136044
 30
0.0
 11
-259.2419781836506
 21
-53.46436475606342
 31
0.0
  0
LINE
  5
95
330
1F
100
AcDbEntity
  8
chh-07_Pen_No__7_Pen_No__7
  6
Continuous
100
AcDbLine
 10
-250.5817241458066
 20
-48.46436475606486
 30
0.0
 11
-129.3381676159864
 21
21.53563524393587
 31
0.0
  0
LINE
  5
96
330
1F
100
AcDbEntity
  8
chh-07_Pen_No__7_Pen_No__7
  6
Continuous
100
AcDbLine
 10
-120.6779135781406
 20
26.53563524393621
 30
0.0
 11
0.5656429516804617
 21
96.5356352439356
 31
0.0
  0
LINE
  5
97
330
1F
100
AcDbEntity
  8
chh-07_Pen_No__7_Pen_No__7
  6
Continuous
100
AcDbLine
 10
-3.76448406724153
 20
99.03563524393554
 30
0.0
 11
4.895769970602454
 21
104.035635243935
 31
0.0
  0
LINE
  5
98
330
1F
100
AcDbEntity
  8
chh-07_Pen_No__7_Pen_No__7
  6
Continuous
100
AcDbLine
 10
4.895769970602454
 20
104.035635243935
 30
0.0
 11
9.225896989525333
 21
101.5356352439355
 31
0.0
  0
LINE
  5
99
330
1F
100
AcDbEntity
  8
chh-07_Pen_No__7_Pen_No__7
  6
Continuous
100
AcDbLine
 10
9.225896989525333
 20
101.5356352439355
 30
0.0
 11
130.4694535193473
 21
171.5356352439349
 31
0.0
  0
LINE
  5
9A
330
1F
100
AcDbEntity
  8
chh-07_Pen_No__7_Pen_No__7
  6
Continuous
100
AcDbLine
 10
-3.76448406724153
 20
99.035635243936
 30
0.0
 11
0.5656429516804617
 21
96.5356352439356
 31
0.0
  0
LINE
  5
9B
330
1F
100
AcDbEntity
  8
chh-07_Pen_No__7_Pen_No__7
  6
Continuous
100
AcDbLine
 10
139.1297075571895
 20
176.5356352439348
 30
0.0
 11
139.1297075571895
 21
-135.3249718786763
 31
0.0
  0
LINE
  5
9C
330
1F
100
AcDbEntity
  8
chh-07_Pen_No__7_Pen_No__7
  6
Continuous
100
AcDbLine
 10
134.7995805382702
 20
179.0356352439356
 30
0.0
 11
134.7995805382738
 21
-132.8249718786795
 31
0.0
  0
LINE
  5
9D
330
1F
100
AcDbEntity
  8
chh-07_Pen_No__7_Pen_No__7
  6
Continuous
100
AcDbLine
 10
130.4694535193464
 20
171.535635243934
 30
0.0
 11
130.4694535193456
 21
-130.3249718786755
 31
0.0
  0
LINE
  5
9E
330
1F
100
AcDbEntity
  8
chh-07_Pen_No__7_Pen_No__7
  6
Continuous
100
AcDbLine
 10
126.1393265004236
 20
174.0356352439357
 30
0.0
 11
134.7995805382684
 21
179.0356352439343
 31
0.0
  0
LINE
  5
9F
330
1F
100
AcDbEntity
  8
chh-07_Pen_No__7_Pen_No__7
  6
Continuous
100
AcDbLine
 10
134.7995805382684
 20
179.0356352439343
 30
0.0
 11
139.1297075571895
 21
176.5356352439348
 31
0.0
  0
LINE
  5
A0
330
1F
100
AcDbEntity
  8
chh-07_Pen_No__7_Pen_No__7
  6
Continuous
100
AcDbLine
 10
126.1393265004236
 20
174.0356352439357
 30
0.0
 11
130.4694535193473
 21
171.5356352439358
 31
0.0
  0
LINE
  5
A1
330
1F
100
AcDbEntity
  8
chh-07_Pen_No__7_Pen_No__7
  6
Continuous
100
AcDbLine
 10
79.68712368925266
 20
-79.66405026862711
 30
0.0
 11
79.68712368925266
 21
-101.2819538791082
 31
0.0
  0
LINE
  5
A2
330
1F
100
AcDbEntity
  8
chh-07_Pen_No__7_Pen_No__7
  6
Continuous
100
AcDbLine
 10
71.02686965140778
 20
-82.49013722514309
 30
0.0
 11
71.02686965140778
 21
-96.28195387910831
 31
0.0
  0
LINE
  5
A3
330
1F
100
AcDbEntity
  8
chh-07_Pen_No__7_Pen_No__7
  6
Continuous
100
AcDbLine
 10
139.1297075571895
 20
176.5356352439348
 30
0.0
 11
260.3732640870124
 21
246.5356352439342
 31
0.0
  0
LINE
  5
A4
330
1F
100
AcDbEntity
  8
chh-07_Pen_No__7_Pen_No__7
  6
Continuous
100
AcDbLine
 10
269.0335181248564
 20
251.5356352439336
 30
0.0
 11
325.4071455149365
 21
284.0829641927921
 31
0.0
  0
LINE
  5
A5
330
1F
100
AcDbEntity
  8
chh-07_Pen_No__7_Pen_No__7
  6
Continuous
100
AcDbLine
 10
-347.1026031669842
 20
-92.190720241358
 30
0.0
 11
315.0148406695232
 21
290.0829641927959
 31
0.0
  0
LINE
  5
A6
330
1F
100
AcDbEntity
  8
chh-07_Pen_No__7_Pen_No__7
  6
Continuous
100
AcDbLine
 10
-156.1735210121762
 20
197.9737695382108
 30
0.0
 11
-156.1735210121762
 21
152.9737695382113
 31
0.0
  0
LINE
  5
A7
330
1F
100
AcDbEntity
  8
chh-07_Pen_No__7_Pen_No__7
  6
Continuous
100
AcDbLine
 10
-78.2312346715777
 20
152.9737695382109
 30
0.0
 11
-78.2312346715777
 21
133.9423950053545
 31
0.0
  0
LINE
  5
A8
330
1F
100
AcDbEntity
  8
chh-07_Pen_No__7_Pen_No__7
  6
Continuous
100
AcDbLine
 10
-0.2889483309782837
 20
197.9737695382108
 30
0.0
 11
-0.2889483309782837
 21
178.9423950053554
 31
0.0
  0
LINE
  5
A9
330
1F
100
AcDbEntity
  8
chh-07_Pen_No__7_Pen_No__7
  6
Continuous
100
AcDbLine
 10
325.4071455149365
 20
284.0829641927917
 30
0.0
 11
315.0148406695232
 21
290.0829641927963
 31
0.0
  0
LINE
  5
AA
330
1F
100
AcDbEntity
  8
chh-07_Pen_No__7_Pen_No__7
  6
Continuous
100
AcDbLine
 10
325.4071455149339
 20
284.082964192793
 30
0.0
 11
325.4071455149348
 21
-172.1507716630256
 31
0.0
  0
LINE
  5
AB
330
1F
100
AcDbEntity
  8
chh-07_Pen_No__7_Pen_No__7
  6
Continuous
100
AcDbLine
 10
-95.00308736524035
 20
-136.6704296120934
 30
0.0
 11
-95.00308736524035
 21
-233.9890012651108
 31
0.0
  0
LINE
  5
AC
330
1F
100
AcDbEntity
  8
chh-07_Pen_No__7_Pen_No__7
  6
Continuous
100
AcDbLine
 10
111.7700169922753
 20
-338.4893086910127
 30
0.0
 11
-93.1946140559308
 21
-220.1529237809779
 31
0.0
  0
LINE
  5
AD
330
1F
100
AcDbEntity
  8
chh-07_Pen_No__7_Pen_No__7
  6
Continuous
100
AcDbLine
 10
115.7719373975532
 20
-330.7061431602228
 30
0.0
 11
-89.19269365064933
 21
-212.3697582501886
 31
0.0
  0
LINE
  5
AE
330
1F
100
AcDbEntity
  8
chh-07_Pen_No__7_Pen_No__7
  6
Continuous
100
AcDbLine
 10
115.7719373975532
 20
-266.6263608182849
 30
0.0
 11
-89.19269365065644
 21
-148.2899759082471
 31
0.0
  0
LINE
  5
AF
330
1F
100
AcDbEntity
  8
chh-07_Pen_No__7_Pen_No__7
  6
Continuous
100
AcDbLine
 10
275.9915006996183
 20
-214.3421649912341
 30
0.0
 11
71.02686965140778
 21
-96.00578008119587
 31
0.0
  0
LINE
  5
B0
330
1F
100
AcDbEntity
  8
chh-07_Pen_No__7_Pen_No__7
  6
Continuous
100
AcDbLine
 10
111.7700169922753
 20
-338.4893086910127
 30
0.0
 11
113.5486716340541
 21
-339.4038510165903
 31
0.0
  0
LINE
  5
B1
330
1F
100
AcDbEntity
  8
chh-07_Pen_No__7_Pen_No__7
  6
Continuous
100
AcDbLine
 10
-89.19269365065644
 20
-148.2899759082471
 30
0.0
 11
71.02686965140778
 21
-96.00578008119587
 31
0.0
  0
LINE
  5
B2
330
1F
100
AcDbEntity
  8
chh-07_Pen_No__7_Pen_No__7
  6
Continuous
100
AcDbLine
 10
-95.00308736524035
 20
-136.6704296120934
 30
0.0
 11
0.5656429516804617
 21
-105.4836375134774
 31
0.0
  0
LINE
  5
B3
330
1F
100
AcDbEntity
  8
chh-07_Pen_No__7_Pen_No__7
  6
Continuous
100
AcDbLine
 10
-89.19269365064933
 20
-212.3697582501886
 30
0.0
 11
-93.1946140559308
 21
-220.1529237809779
 31
0.0
  0
LINE
  5
B4
330
1F
100
AcDbEntity
  8
chh-07_Pen_No__7_Pen_No__7
  6
Continuous
100
AcDbLine
 10
-89.19269365064933
 20
-212.3697582501886
 30
0.0
 11
-89.19269365065644
 21
-148.2899759082471
 31
0.0
  0
LINE
  5
B6
330
1F
100
AcDbEntity
  8
chh-07_Pen_No__7_Pen_No__7
  6
Dashed
100
AcDbLine
 10
-32.06703658691337
 20
-190.1195390538811
 30
0.0
 11
127.1370309558979
 21
-138.1667283463747
 31
0.0
  0
LINE
  5
B7
330
1F
100
AcDbEntity
  8
chh-07_Pen_No__7_Pen_No__7
  6
Continuous
100
AcDbLine
 10
-120.6779135781415
 20
26.53563524393576
 30
0.0
 11
-120.6779135781406
 21
-429.6981006118824
 31
0.0
  0
LINE
  5
B8
330
1F
100
AcDbEntity
  8
chh-07_Pen_No__7_Pen_No__7
  6
Continuous
100
AcDbLine
 10
-125.0080405970609
 20
29.03563524393615
 30
0.0
 11
-125.0080405970582
 21
-427.198100611878
 31
0.0
  0
LINE
  5
B9
330
1F
100
AcDbEntity
  8
chh-07_Pen_No__7_Pen_No__7
  6
Continuous
100
AcDbLine
 10
-129.3381676159855
 20
21.53563524393498
 30
0.0
 11
-129.3381676159837
 21
-434.6981006118801
 31
0.0
  0
LINE
  5
BA
330
1F
100
AcDbEntity
  8
chh-07_Pen_No__7_Pen_No__7
  6
Continuous
100
AcDbLine
 10
-133.6682946349075
 20
24.03563524393581
 30
0.0
 11
-125.0080405970626
 21
29.03563524393526
 31
0.0
  0
LINE
  5
BB
330
1F
100
AcDbEntity
  8
chh-07_Pen_No__7_Pen_No__7
  6
Continuous
100
AcDbLine
 10
-125.0080405970626
 20
29.03563524393526
 30
0.0
 11
-120.6779135781406
 21
26.53563524393532
 31
0.0
  0
LINE
  5
BC
330
1F
100
AcDbEntity
  8
chh-07_Pen_No__7_Pen_No__7
  6
Continuous
100
AcDbLine
 10
-133.6682946349075
 20
24.0356352439367
 30
0.0
 11
-129.3381676159837
 21
21.53563524393587
 31
0.0
  0
LINE
  5
BD
330
1F
100
AcDbEntity
  8
chh-07_Pen_No__7_Pen_No__7
  6
Continuous
100
AcDbLine
 10
-250.5817241458066
 20
-48.46436475606397
 30
0.0
 11
-250.5817241458057
 21
-504.6981006118821
 31
0.0
  0
LINE
  5
BE
330
1F
100
AcDbEntity
  8
chh-07_Pen_No__7_Pen_No__7
  6
Continuous
100
AcDbLine
 10
-254.911851164725
 20
-45.96436475606358
 30
0.0
 11
-254.9118511647233
 21
-502.1981006118777
 31
0.0
  0
LINE
  5
BF
330
1F
100
AcDbEntity
  8
chh-07_Pen_No__7_Pen_No__7
  6
Continuous
100
AcDbLine
 10
-259.2419781836514
 20
-53.46436475606475
 30
0.0
 11
-259.2419781836497
 21
-509.6981006118793
 31
0.0
  0
LINE
  5
C0
330
1F
100
AcDbEntity
  8
chh-07_Pen_No__7_Pen_No__7
  6
Continuous
100
AcDbLine
 10
-263.5721052025726
 20
-50.96436475606347
 30
0.0
 11
-254.9118511647268
 21
-45.96436475606447
 31
0.0
  0
LINE
  5
C1
330
1F
100
AcDbEntity
  8
chh-07_Pen_No__7_Pen_No__7
  6
Continuous
100
AcDbLine
 10
-254.9118511647268
 20
-45.96436475606447
 30
0.0
 11
-250.5817241458057
 21
-48.46436475606486
 31
0.0
  0
LINE
  5
C2
330
1F
100
AcDbEntity
  8
chh-07_Pen_No__7_Pen_No__7
  6
Continuous
100
AcDbLine
 10
-263.5721052025726
 20
-50.96436475606347
 30
0.0
 11
-259.2419781836497
 21
-53.46436475606387
 31
0.0
  0
LINE
  5
C3
330
1F
100
AcDbEntity
  8
chh-07_Pen_No__7_Pen_No__7
  6
Continuous
100
AcDbLine
 10
-336.7102983215726
 20
-98.19072024136177
 30
0.0
 11
-347.1026031669842
 21
-92.19072024135843
 31
0.0
  0
LINE
  5
C4
330
1F
100
AcDbEntity
  8
chh-07_Pen_No__7_Pen_No__7
  6
Continuous
100
AcDbLine
 10
-336.7102983215726
 20
-98.19072024136177
 30
0.0
 11
-336.7102983215717
 21
-554.4244560971769
 31
0.0
  0
LINE
  5
C5
330
1F
100
AcDbEntity
  8
chh-07_Pen_No__7_Pen_No__7
  6
Continuous
100
AcDbLine
 10
-78.80038880523779
 20
-228.4634336042423
 30
0.0
 11
-78.80038880523601
 21
-405.5201004112491
 31
0.0
  0
LINE
  5
C6
330
1F
100
AcDbEntity
  8
chh-07_Pen_No__7_Pen_No__7
  6
Continuous
100
AcDbLine
 10
-95.00308736524035
 20
-233.9890012651095
 30
0.0
 11
-82.11645612059628
 21
-226.5489012470682
 31
0.0
  0
LINE
  5
C7
330
1F
100
AcDbEntity
  8
chh-07_Pen_No__7_Pen_No__7
  6
Continuous
100
AcDbLine
 10
-336.7102983215717
 20
-554.4244560971773
 30
0.0
 11
-259.2419781836479
 21
-509.6981006118798
 31
0.0
  0
LINE
  5
C8
330
1F
100
AcDbEntity
  8
chh-07_Pen_No__7_Pen_No__7
  6
Continuous
100
AcDbLine
 10
-250.5817241458057
 20
-504.6981006118804
 30
0.0
 11
-129.3381676159837
 21
-434.6981006118801
 31
0.0
  0
LINE
  5
C9
330
1F
100
AcDbEntity
  8
chh-07_Pen_No__7_Pen_No__7
  6
Continuous
100
AcDbLine
 10
-120.6779135781406
 20
-429.6981006118806
 30
0.0
 11
-78.80038880523601
 21
-405.5201004112491
 31
0.0
  0
LINE
  5
CA
330
1F
100
AcDbEntity
  8
chh-07_Pen_No__7_Pen_No__7
  6
Continuous
100
AcDbLine
 10
-347.1026031669842
 20
-92.19072024135843
 30
0.0
 11
-347.1026031669833
 21
-548.4244560971757
 31
0.0
  0
LINE
  5
CB
330
1F
100
AcDbEntity
  8
chh-07_Pen_No__7_Pen_No__7
  6
Continuous
100
AcDbLine
 10
-336.7102983215726
 20
-554.4244560971781
 30
0.0
 11
-347.1026031669833
 21
-548.4244560971757
 31
0.0
  0
LINE
  5
CC
330
1F
100
AcDbEntity
  8
chh-07_Pen_No__7_Pen_No__7
  6
Continuous
100
AcDbLine
 10
181.4454626300652
 20
-555.7731127929108
 30
0.0
 11
153.1636054856131
 21
-539.444574957371
 31
0.0
  0
LINE
  5
CD
330
1F
100
AcDbEntity
  8
chh-05_Pen_No__7_Pen_No__7
  6
Continuous
100
AcDbLine
 10
230.8089106457791
 20
-572.2731127929113
 30
0.0
 11
191.8377674754883
 21
-549.7731127929056
 31
0.0
  0
LINE
  5
CE
330
1F
100
AcDbEntity
  8
chh-05_Pen_No__7_Pen_No__7
  6
Continuous
100
AcDbLine
 10
308.3614789063829
 20
-592.0481089545178
 30
0.0
 11
252.4595457404042
 21
-559.7731127929037
 31
0.0
  0
LINE
  5
CF
330
1F
100
AcDbEntity
  8
chh-07_Pen_No__7_Pen_No__7
  6
Continuous
100
AcDbLine
 10
181.4454626300652
 20
-555.7731127929108
 30
0.0
 11
191.8377674754883
 21
-549.7731127929052
 31
0.0
  0
LINE
  5
D0
330
1F
100
AcDbEntity
  8
chh-05_Pen_No__7_Pen_No__7
  6
Continuous
100
AcDbLine
 10
230.8089106457791
 20
-572.2731127929113
 30
0.0
 11
252.4595457404042
 21
-559.7731127929037
 31
0.0
  0
LINE
  5
D1
330
1F
100
AcDbEntity
  8
chh-05_Pen_No__7_Pen_No__7
  6
Continuous
100
AcDbLine
 10
308.3614789063829
 20
-592.0481089545178
 30
0.0
 11
386.3037652469823
 21
-547.0481089545189
 31
0.0
  0
LINE
  5
D2
330
1F
100
AcDbEntity
  8
chh-07_Pen_No__7_Pen_No__7
  6
Continuous
100
AcDbLine
 10
111.7700169922753
 20
-338.4893086910127
 30
0.0
 11
-93.1946140559308
 21
-220.1529237809779
 31
0.0
  0
LINE
  5
D3
330
1F
100
AcDbEntity
  8
chh-07_Pen_No__7_Pen_No__7
  6
Continuous
100
AcDbLine
 10
111.7700169922753
 20
-338.4893086910127
 30
0.0
 11
113.5486716340541
 21
-339.4038510165903
 31
0.0
  0
LINE
  5
D4
330
1F
100
AcDbEntity
  8
chh-08_Pen_No__8_Pen_No__81
  6
Continuous
100
AcDbLine
 10
139.2918989998304
 20
-281.0949352566946
 30
0.0
 11
117.7719373975538
 21
-268.6703796326676
 31
0.0
  0
LINE
  5
D5
330
1F
100
AcDbEntity
  8
chh-08_Pen_No__8_Pen_No__81
  6
Continuous
100
AcDbLine
 10
99.30397310423197
 20
192.4110204724997
 30
0.0
 11
38.68219483932142
 21
182.4110204724999
 31
0.0
  0
LINE
  5
D6
330
1F
100
AcDbEntity
  8
chh-08_Pen_No__8_Pen_No__81
  6
Continuous
100
AcDbLine
 10
-39.26009150127799
 20
265.473769538212
 30
0.0
 11
77.65333800962202
 21
242.973769538212
 31
0.0
  0
LINE
  5
D7
330
1F
100
AcDbEntity
  8
chh-08_Pen_No__8_Pen_No__81
  6
Continuous
100
AcDbLine
 10
-0.2889483309782837
 20
287.973769538212
 30
0.0
 11
38.68219483932231
 21
220.4737695382125
 31
0.0
  0
LINE
  5
D8
330
1F
100
AcDbEntity
  8
chh-08_Pen_No__8_Pen_No__81
  6
Continuous
100
AcDbLine
 10
77.65333800962202
 20
204.9110204725017
 30
0.0
 11
60.33282993393316
 21
169.9110204725015
 31
0.0
  0
LINE
  5
D9
330
1F
100
AcDbEntity
  8
chh-05_Pen_No__7_Pen_No__7
  6
Continuous
100
AcDbLine
 10
99.30397310423197
 20
192.4110204724997
 30
0.0
 11
99.30397310423197
 21
165.542236736847
 31
0.0
  0
LINE
  5
DA
330
1F
100
AcDbEntity
  8
chh-05_Pen_No__7_Pen_No__7
  6
Continuous
100
AcDbLine
 10
60.33282993393227
 20
169.9110204724997
 30
0.0
 11
60.33282993393227
 21
143.0422367368475
 31
0.0
  0
LINE
  5
DB
330
1F
100
AcDbEntity
  8
chh-07_Pen_No__7_Pen_No__7
  6
Continuous
100
AcDbLine
 10
38.68219483932231
 20
220.4737695382125
 30
0.0
 11
38.68219483932319
 21
201.4423950053553
 31
0.0
  0
LINE
  5
DC
330
1F
100
AcDbEntity
  8
chh-07_Pen_No__7_Pen_No__7
  6
Continuous
100
AcDbLine
 10
77.65333800962202
 20
242.973769538212
 30
0.0
 11
77.65333800962202
 21
223.9423950053562
 31
0.0
  0
LINE
  5
DD
330
1F
100
AcDbEntity
  8
chh-05_Pen_No__7_Pen_No__7
  6
Continuous
100
AcDbLine
 10
38.68219483932142
 20
182.4110204724999
 30
0.0
 11
38.68219483932142
 21
130.5422367368477
 31
0.0
  0
LINE
  5
DE
330
1F
100
AcDbEntity
  8
chh-07_Pen_No__7_Pen_No__7
  6
Continuous
100
AcDbLine
 10
-39.26009150127799
 20
265.473769538212
 30
0.0
 11
-39.26009150127799
 21
220.4737695382112
 31
0.0
  0
LINE
  5
DF
330
1F
100
AcDbEntity
  8
chh-07_Pen_No__7_Pen_No__7
  6
Continuous
100
AcDbLine
 10
-39.26009150127888
 20
175.4737695382117
 30
0.0
 11
-39.26009150127888
 21
156.4423950053545
 31
0.0
  0
LINE
  5
E0
330
1F
100
AcDbEntity
  8
chh-08_Pen_No__8_Pen_No__81
  6
Continuous
100
AcDbLine
 10
-234.1158073527774
 20
152.9737695382109
 30
0.0
 11
-117.2023778418774
 21
130.4737695382109
 31
0.0
  0
LINE
  5
E1
330
1F
100
AcDbEntity
  8
chh-08_Pen_No__8_Pen_No__81
  6
Continuous
100
AcDbLine
 10
-195.1446641824777
 20
175.4737695382108
 30
0.0
 11
-156.1735210121762
 21
107.9737695382109
 31
0.0
  0
LINE
  5
E2
330
1F
100
AcDbEntity
  8
chh-07_Pen_No__7_Pen_No__7
  6
Continuous
100
AcDbLine
 10
-234.1158073527774
 20
152.9737695382109
 30
0.0
 11
-234.1158073527783
 21
43.9423950053538
 31
0.0
  0
LINE
  5
E3
330
1F
100
AcDbEntity
  8
chh-07_Pen_No__7_Pen_No__7
  6
Continuous
100
AcDbLine
 10
-156.1735210121762
 20
107.9737695382109
 30
0.0
 11
-156.1735210121762
 21
88.94239500535461
 31
0.0
  0
LINE
  5
E4
330
1F
100
AcDbEntity
  8
chh-07_Pen_No__7_Pen_No__7
  6
Continuous
100
AcDbLine
 10
-117.2023778418783
 20
130.4737695382118
 30
0.0
 11
-117.2023778418783
 21
111.4423950053546
 31
0.0
  0
LINE
  5
E5
330
1F
100
AcDbEntity
  8
chh-08_Pen_No__8_Pen_No__81
  6
Continuous
100
AcDbLine
 10
-95.55174274726832
 20
79.91102047249854
 30
0.0
 11
-156.1735210121798
 21
69.91102047249831
 31
0.0
  0
LINE
  5
E6
330
1F
100
AcDbEntity
  8
chh-08_Pen_No__8_Pen_No__81
  6
Continuous
100
AcDbLine
 10
-117.2023778418783
 20
92.41102047250006
 30
0.0
 11
-134.5228859175672
 21
57.41102047250035
 31
0.0
  0
LINE
  5
E7
330
1F
100
AcDbEntity
  8
chh-05_Pen_No__7_Pen_No__7
  6
Continuous
100
AcDbLine
 10
-95.55174274726832
 20
79.91102047249854
 30
0.0
 11
-95.55174274726832
 21
53.04223673684538
 31
0.0
  0
LINE
  5
E8
330
1F
100
AcDbEntity
  8
chh-05_Pen_No__7_Pen_No__7
  6
Continuous
100
AcDbLine
 10
-134.522885917568
 20
57.41102047249858
 30
0.0
 11
-134.522885917568
 21
30.54223673684631
 31
0.0
  0
LINE
  5
E9
330
1F
100
AcDbEntity
  8
chh-05_Pen_No__7_Pen_No__7
  6
Continuous
100
AcDbLine
 10
-156.1735210121798
 20
69.91102047249831
 30
0.0
 11
-156.1735210121798
 21
18.04223673684657
 31
0.0
  0
LINE
  5
EA
330
1F
100
AcDbEntity
  8
chh-07_Pen_No__7_Pen_No__7
  6
Continuous
100
AcDbLine
 10
269.0335181248547
 20
-204.6981006118828
 30
0.0
 11
325.4071455149348
 21
-172.1507716630256
 31
0.0
  0
LINE
  5
EB
330
1F
100
AcDbEntity
  8
chh-07_Pen_No__7_Pen_No__7
  6
Continuous
100
AcDbLine
 10
269.0335181248547
 20
251.535635243935
 30
0.0
 11
269.0335181248547
 21
-204.6981006118828
 31
0.0
  0
LINE
  5
EC
330
1F
100
AcDbEntity
  8
chh-07_Pen_No__7_Pen_No__7
  6
Continuous
100
AcDbLine
 10
264.7033911059353
 20
254.0356352439354
 30
0.0
 11
264.7033911059415
 21
-202.1981006118762
 31
0.0
  0
LINE
  5
ED
330
1F
100
AcDbEntity
  8
chh-07_Pen_No__7_Pen_No__7
  6
Continuous
100
AcDbLine
 10
260.3732640870107
 20
246.5356352439342
 30
0.0
 11
260.3732640870089
 21
-205.324971878677
 31
0.0
  0
LINE
  5
EE
330
1F
100
AcDbEntity
  8
chh-07_Pen_No__7_Pen_No__7
  6
Continuous
100
AcDbLine
 10
256.0431370680895
 20
249.0356352439355
 30
0.0
 11
264.7033911059336
 21
254.0356352439345
 31
0.0
  0
LINE
  5
EF
330
1F
100
AcDbEntity
  8
chh-07_Pen_No__7_Pen_No__7
  6
Continuous
100
AcDbLine
 10
264.7033911059336
 20
254.0356352439345
 30
0.0
 11
269.0335181248547
 21
251.535635243935
 31
0.0
  0
LINE
  5
F0
330
1F
100
AcDbEntity
  8
chh-07_Pen_No__7_Pen_No__7
  6
Continuous
100
AcDbLine
 10
256.0431370680895
 20
249.0356352439355
 30
0.0
 11
260.3732640870115
 21
246.535635243936
 31
0.0
  0
LINE
  5
F1
330
1F
100
AcDbEntity
  8
chh-07_Pen_No__7_Pen_No__7
  6
Dashed
100
AcDbLine
 10
-32.06703658691337
 20
-190.1195390538811
 30
0.0
 11
-32.06703658691426
 21
-236.22054318395
 31
0.0
  0
LINE
  5
F2
330
1F
100
AcDbEntity
  8
chh-07_Pen_No__7_Pen_No__7
  6
Dashed
100
AcDbLine
 10
-36.39716360583537
 20
-187.6195390538812
 30
0.0
 11
-36.39716360583625
 21
-233.7205431839501
 31
0.0
  0
LINE
  5
F3
330
1F
100
AcDbEntity
  8
chh-07_Pen_No__7_Pen_No__7
  6
Dashed
100
AcDbLine
 10
-70.74367772433979
 20
-167.7895698818371
 30
0.0
 11
88.46038981847146
 21
-115.8367591743311
 31
0.0
  0
LINE
  5
F4
330
1F
100
AcDbEntity
  8
chh-07_Pen_No__7_Pen_No__7
  6
Dashed
100
AcDbLine
 10
-70.74367772433979
 20
-167.7895698818371
 30
0.0
 11
-70.74367772434067
 21
-213.8905740119065
 31
0.0
  0
LWPOLYLINE
  5
F5
330
1F
100
AcDbEntity
  8
chh-08_Pen_No__8_Pen_No__81
  6
Continuous
100
AcDbPolyline
 90
        3
 70
   128
 43
0.0
 10
258.9673343529866
 20
-358.3119378220879
 42
0.0460670448529843
 10
277.9865585202794
 20
-564.2403908936843
 42
-0.0029740119018195
 10
279.8715470004185
 20
-575.5994390994074
  0
LWPOLYLINE
  5
F6
330
1F
100
AcDbEntity
  8
chh-08_Pen_No__8_Pen_No__81
  6
Continuous
100
AcDbPolyline
 90
        5
 70
   128
 43
0.0
 10
329.5030917054611
 20
-269.470558925739
 10
329.5030917054611
 20
-265.5594047715674
 10
204.2595351755552
 20
-306.4299358149078
 10
204.2595351755605
 20
-365.3448675937864
 10
191.8377674754785
 20
-358.1731566683336
  0
LWPOLYLINE
  5
F7
330
1F
100
AcDbEntity
  8
chh-09_Pen_No__9_Pen_No__2
  6
Continuous
100
AcDbPolyline
 90
        2
 70
   128
 43
0.0
 10
417.6188313876665
 20
183.1123985081625
 10
-9.018664674163707
 20
183.1123985081625
  0
LWPOLYLINE
  5
F8
330
1F
100
AcDbEntity
  8
chh-07_Pen_No__7_Pen_No__7
  6
Continuous
100
AcDbPolyline
 90
        4
 70
   128
 43
0.0
 10
153.163605485614
 20
-308.5302455175082
 10
157.493732504536
 20
-306.0302455175083
 10
148.8334784666929
 20
-301.0302455175083
 10
144.5033514477691
 20
-303.5302455175083
  0
LWPOLYLINE
  5
F9
330
1F
100
AcDbEntity
  8
chh-05_Pen_No__7_Pen_No__7
  6
Continuous
100
AcDbPolyline
 90
        4
 70
   129
 43
0.0
 10
308.3614789063829
 20
-431.8296604763819
 10
386.3037652469805
 20
-386.8296604763825
 10
386.3037652469805
 20
-341.8296604763821
 10
308.3614789063829
 20
-386.829660476382
  0
LWPOLYLINE
  5
FA
330
1F
100
AcDbEntity
  8
chh-07_Pen_No__7_Pen_No__7
  6
Continuous
100
AcDbPolyline
 90
        3
 70
   128
 43
0.0
 10
23.25979491794714
 20
-459.4445749573713
 10
18.92966789902603
 20
-456.9445749573719
 10
14.59954088010404
 20
-459.4445749573718
  0
LWPOLYLINE
  5
FB
330
1F
100
AcDbEntity
  8
chh-05_Pen_No__7_Pen_No__7
  6
Continuous
100
AcDbPolyline
 90
        4
 70
   129
 43
0.0
 10
252.459545740382
 20
-354.5546643147713
 10
252.459545740382
 20
-399.5546643147713
 10
230.8089106457711
 20
-412.0546643147715
 10
230.8089106457711
 20
-367.0546643147715
  0
LWPOLYLINE
  5
FC
330
1F
100
AcDbEntity
  8
chh-05_Pen_No__7_Pen_No__7
  6
Continuous
100
AcDbPolyline
 90
        3
 70
   128
 43
0.0
 10
330.4018320809894
 20
-309.5546643147763
 10
352.0524671756002
 20
-297.0546643147761
 10
352.0524671756002
 20
-322.054664314776
  0
LWPOLYLINE
  5
FD
330
1F
100
AcDbEntity
  8
chh-05_Pen_No__7_Pen_No__7
  6
Continuous
100
AcDbPolyline
 90
        4
 70
   128
 43
0.0
 10
338.2806536754661
 20
-289.1035040832518
 10
338.2806536754661
 20
-274.5382866919414
 10
217.0370971455588
 20
-314.1035040832037
 10
217.0370971455668
 20
-359.1035040831988
  0
LWPOLYLINE
  5
FE
330
1F
100
AcDbEntity
  8
chh-07_Pen_No__7_Pen_No__7
  6
Continuous
100
AcDbPolyline
 90
        4
 70
   128
 43
0.0
 10
0.5656429516795736
 20
-102.6575505569597
 10
4.895769970600678
 20
-100.1575505569606
 10
9.225896989524445
 20
-102.6575505569606
 10
79.68712368925266
 20
-79.66405026862711
  0
LWPOLYLINE
  5
FF
330
1F
100
AcDbEntity
  8
chh-05_Pen_No__7_Pen_No__7
  6
Continuous
100
AcDbPolyline
 90
        4
 70
   129
 43
0.0
 10
-39.26009150127799
 20
175.4737695382108
 10
-117.2023778418774
 20
220.4737695382107
 10
-156.1735210121762
 20
197.9737695382108
 10
-78.2312346715777
 20
152.9737695382109
  0
LWPOLYLINE
  5
100
330
1F
100
AcDbEntity
  8
chh-05_Pen_No__7_Pen_No__7
  6
Continuous
100
AcDbPolyline
 90
        4
 70
   129
 43
0.0
 10
-0.2889483309782837
 20
197.9737695382108
 10
-78.2312346715777
 20
242.9737695382116
 10
-117.2023778418774
 20
220.4737695382107
 10
-39.26009150127799
 20
175.4737695382108
  0
LWPOLYLINE
  5
101
330
1F
100
AcDbEntity
  8
chh-07_Pen_No__7_Pen_No__7
  6
Continuous
100
AcDbPolyline
 90
        5
 70
   128
 43
0.0
 10
275.9915006996059
 20
-226.0756274537424
 10
275.9915006996059
 20
-214.3421649912266
 10
115.7719373975532
 20
-266.6263608182849
 10
115.7719373975532
 20
-330.7061431602228
 10
111.7700169922753
 20
-338.4893086910127
  0
LWPOLYLINE
  5
102
330
1F
100
AcDbEntity
  8
chh-07_Pen_No__7_Pen_No__7
  6
Continuous
100
AcDbPolyline
 90
        5
 70
   128
 43
0.0
 10
273.9915006996052
 20
-224.920926915363
 10
273.9915006996052
 20
-217.0986186070193
 10
117.7719373975538
 20
-268.0775007819992
 10
117.7719373975538
 20
-331.1902002716959
 10
113.5486716340541
 20
-339.4038510165903
  0
LWPOLYLINE
  5
103
330
1F
100
AcDbEntity
  8
chh-07_Pen_No__7_Pen_No__7
  6
Continuous
100
AcDbPolyline
 90
        5
 70
   128
 43
0.0
 10
287.5114623018808
 20
-241.3155262316938
 10
287.5114623018808
 20
-232.726680385872
 10
139.2918989998304
 20
-281.0949352566946
 10
139.2918989998304
 20
-334.5160906902848
 10
117.7719373975538
 20
-322.0915350662582
  0
LWPOLYLINE
  5
104
330
1F
100
AcDbEntity
  8
chh-07_Pen_No__7_Pen_No__7
  6
Continuous
100
AcDbPolyline
 90
        3
 70
   128
 43
0.0
 10
-129.3381676159846
 20
-429.6981006118802
 10
-125.0080405970635
 20
-427.1981006118811
 10
-120.6779135781415
 20
-429.698100611881
  0
LWPOLYLINE
  5
105
330
1F
100
AcDbEntity
  8
chh-07_Pen_No__7_Pen_No__7
  6
Continuous
100
AcDbPolyline
 90
        3
 70
   128
 43
0.0
 10
-259.2419781836506
 20
-504.6981006118804
 10
-254.9118511647277
 20
-502.1981006118809
 10
-250.5817241458066
 20
-504.6981006118813
  0
LWPOLYLINE
  5
106
330
1F
100
AcDbEntity
  8
chh-09_Pen_No__9_Pen_No__2
  6
Continuous
100
AcDbPolyline
 90
        2
 70
   128
 43
0.0
 10
417.6188313876665
 20
152.798230955535
 10
67.64848468453464
 20
152.798230955535
  0
LWPOLYLINE
  5
107
330
1F
100
AcDbEntity
  8
chh-09_Pen_No__9_Pen_No__2
  6
Continuous
100
AcDbPolyline
 90
        2
 70
   128
 43
0.0
 10
417.6188313876665
 20
117.730454985809
 10
187.499821381411
 20
117.730454985809
  0
LWPOLYLINE
  5
108
330
1F
100
AcDbEntity
  8
chh-09_Pen_No__9_Pen_No__2
  6
Continuous
100
AcDbPolyline
 90
        2
 70
   128
 43
0.0
 10
417.6188313876665
 20
-45.95112652770028
 10
123.1427938089766
 20
-45.95112652770028
  0
LWPOLYLINE
  5
109
330
1F
100
AcDbEntity
  8
chh-09_Pen_No__9_Pen_No__2
  6
Continuous
100
AcDbPolyline
 90
        2
 70
   128
 43
0.0
 10
417.6188313876665
 20
-132.3695752879214
 10
87.11930235736907
 20
-132.3695752879214
  0
LWPOLYLINE
  5
10A
330
1F
100
AcDbEntity
  8
chh-09_Pen_No__9_Pen_No__2
  6
Continuous
100
AcDbPolyline
 90
        2
 70
   128
 43
0.0
 10
417.6188313876665
 20
-196.7122767268633
 10
152.8711512343437
 20
-196.7122767268633
  0
LWPOLYLINE
  5
10B
330
1F
100
AcDbEntity
  8
chh-09_Pen_No__9_Pen_No__2
  6
Continuous
100
AcDbPolyline
 90
        2
 70
   128
 43
0.0
 10
417.6188313876665
 20
-240.7139434202822
 10
181.8563090663449
 20
-240.7139434202822
  0
LWPOLYLINE
  5
10C
330
1F
100
AcDbEntity
  8
chh-09_Pen_No__9_Pen_No__2
  6
Continuous
100
AcDbPolyline
 90
        2
 70
   128
 43
0.0
 10
417.6188313876665
 20
-307.5724274272508
 10
288.1352033222211
 20
-307.5724274272508
  0
LWPOLYLINE
  5
10D
330
1F
100
AcDbEntity
  8
chh-09_Pen_No__9_Pen_No__2
  6
Continuous
100
AcDbPolyline
 90
        2
 70
   128
 43
0.0
 10
417.6188313876665
 20
-443.6519966640645
 10
241.3130239170826
 20
-443.6519966640645
  0
LWPOLYLINE
  5
10E
330
1F
100
AcDbEntity
  8
chh-09_Pen_No__9_Pen_No__2
  6
Continuous
100
AcDbPolyline
 90
        2
 70
   128
 43
0.0
 10
417.6188313876665
 20
-375.1742548805183
 10
397.3869137463588
 20
-375.1742548805183
  0
LWPOLYLINE
  5
10F
330
1F
100
AcDbEntity
  8
chh-09_Pen_No__9_Pen_No__2
  6
Continuous
100
AcDbPolyline
 90
        2
 70
   128
 43
0.0
 10
417.6188313876665
 20
-536.5277334832247
 10
279.4052908251728
 20
-536.5277334832247
  0
LWPOLYLINE
  5
110
330
1F
100
AcDbEntity
  8
chh-07_Pen_No__7_Pen_No__7
  6
Continuous
100
AcDbPolyline
 90
        3
 70
   128
 43
0.0
 10
153.163605485614
 20
-534.4445749573706
 10
148.8334784666938
 20
-531.9445749573716
 10
144.50335144777
 20
-534.4445749573715
  0
LWPOLYLINE
  5
111
330
1F
100
AcDbEntity
  8
chh-07_Pen_No__7_Pen_No__7
  6
Continuous
100
AcDbPolyline
 90
        5
 70
   128
 43
0.0
 10
275.9915006996059
 20
-226.0756274537424
 10
275.9915006996059
 20
-214.3421649912266
 10
115.7719373975532
 20
-266.6263608182849
 10
115.7719373975532
 20
-330.7061431602228
 10
111.7700169922753
 20
-338.4893086910127
  0
LWPOLYLINE
  5
112
330
1F
100
AcDbEntity
  8
chh-07_Pen_No__7_Pen_No__7
  6
Continuous
100
AcDbPolyline
 90
        5
 70
   128
 43
0.0
 10
273.9915006996052
 20
-224.920926915363
 10
273.9915006996052
 20
-217.0986186070193
 10
117.7719373975538
 20
-268.0775007819992
 10
117.7719373975538
 20
-331.1902002716959
 10
113.5486716340541
 20
-339.4038510165903
  0
LWPOLYLINE
  5
113
330
1F
100
AcDbEntity
  8
chh-05_Pen_No__7_Pen_No__7
  6
Continuous
100
AcDbPolyline
 90
        4
 70
   129
 43
0.0
 10
38.68219483932142
 20
182.4110204724999
 10
77.65333800962112
 20
204.9110204724999
 10
99.30397310423197
 20
192.4110204724997
 10
60.33282993393227
 20
169.9110204724997
  0
LWPOLYLINE
  5
114
330
1F
100
AcDbEntity
  8
chh-05_Pen_No__7_Pen_No__7
  6
Continuous
100
AcDbPolyline
 90
        4
 70
   129
 43
0.0
 10
38.68219483932142
 20
182.4110204724999
 10
77.65333800962112
 20
204.9110204724999
 10
99.30397310423197
 20
192.4110204724997
 10
60.33282993393227
 20
169.9110204724997
  0
LWPOLYLINE
  5
115
330
1F
100
AcDbEntity
  8
chh-05_Pen_No__7_Pen_No__7
  6
Continuous
100
AcDbPolyline
 90
        4
 70
   129
 43
0.0
 10
77.65333800962202
 20
242.973769538212
 10
-0.2889483309782837
 20
287.973769538212
 10
-39.26009150127799
 20
265.473769538212
 10
38.68219483932231
 20
220.4737695382125
  0
LWPOLYLINE
  5
116
330
1F
100
AcDbEntity
  8
chh-05_Pen_No__7_Pen_No__7
  6
Continuous
100
AcDbPolyline
 90
        4
 70
   129
 43
0.0
 10
-117.2023778418774
 20
130.4737695382109
 10
-195.1446641824777
 20
175.4737695382108
 10
-234.1158073527774
 20
152.9737695382109
 10
-156.1735210121762
 20
107.9737695382109
  0
LWPOLYLINE
  5
117
330
1F
100
AcDbEntity
  8
chh-05_Pen_No__7_Pen_No__7
  6
Continuous
100
AcDbPolyline
 90
        4
 70
   129
 43
0.0
 10
-156.1735210121798
 20
69.91102047249831
 10
-117.2023778418792
 20
92.41102047249828
 10
-95.55174274726832
 20
79.91102047249854
 10
-134.522885917568
 20
57.41102047249858
  0
LWPOLYLINE
  5
118
330
1F
100
AcDbEntity
  8
chh-05_Pen_No__7_Pen_No__7
  6
Continuous
100
AcDbPolyline
 90
        4
 70
   129
 43
0.0
 10
-156.1735210121798
 20
69.91102047249831
 10
-117.2023778418792
 20
92.41102047249828
 10
-95.55174274726832
 20
79.91102047249854
 10
-134.522885917568
 20
57.41102047249858
  0
LWPOLYLINE
  5
119
330
1F
100
AcDbEntity
  8
chh-07_Pen_No__7_Pen_No__7
  6
Continuous
100
AcDbPolyline
 90
        3
 70
   128
 43
0.0
 10
260.3732640870107
 20
-204.698100611881
 10
264.7033911059318
 20
-202.1981006118819
 10
269.0335181248537
 20
-204.6981006118819
  0
ELLIPSE
  5
11A
330
1F
100
AcDbEntity
  8
chh-07_Pen_No__7_Pen_No__7
  6
Continuous
100
AcDbEllipse
 10
-2.821643545605906
 20
-135.0697136191207
 30
0.0
 11
4.261676475058707
 21
0.0
 31
0.0
210
0.0
220
0.0
230
1.0
 40
0.577350269189625
 41
2.936955011186711
 42
6.487822949582668
  0
ELLIPSE
  5
11B
330
1F
100
AcDbEntity
  8
chh-07_Pen_No__7_Pen_No__7
  6
Continuous
100
AcDbEllipse
 10
50.197252536025
 20
-117.7681414007531
 30
0.0
 11
4.261676475058707
 21
0.0
 31
0.0
210
0.0
220
0.0
230
1.0
 40
0.577350269189625
 41
2.936955011186708
 42
6.487822949582672
  0
ELLIPSE
  5
11C
330
1F
100
AcDbEntity
  8
chh-07_Pen_No__7_Pen_No__7
  6
Continuous
100
AcDbEllipse
 10
-55.84053962723504
 20
-152.3712858374883
 30
0.0
 11
4.261676475058707
 21
0.0
 31
0.0
210
0.0
220
0.0
230
1.0
 40
0.577350269189625
 41
2.936955011186711
 42
6.487822949582668
  0
ELLIPSE
  5
11D
330
1F
100
AcDbEntity
  8
chh-07_Pen_No__7_Pen_No__7
  6
Continuous
100
AcDbEllipse
 10
-2.821643545605906
 20
-134.0697136191208
 30
0.0
 11
4.261676475058707
 21
0.0
 31
0.0
210
0.0
220
0.0
230
1.0
 40
0.577350269189625
 41
0.0
 42
6.283185307179586
  0
ELLIPSE
  5
11E
330
1F
100
AcDbEntity
  8
chh-07_Pen_No__7_Pen_No__7
  6
Continuous
100
AcDbEllipse
 10
50.197252536025
 20
-116.7681414007532
 30
0.0
 11
4.261676475058707
 21
0.0
 31
0.0
210
0.0
220
0.0
230
1.0
 40
0.577350269189625
 41
0.0
 42
6.283185307179586
  0
ELLIPSE
  5
11F
330
1F
100
AcDbEntity
  8
chh-07_Pen_No__7_Pen_No__7
  6
Continuous
100
AcDbEllipse
 10
-55.84053962723504
 20
-151.3712858374884
 30
0.0
 11
4.261676475058707
 21
0.0
 31
0.0
210
0.0
220
0.0
230
1.0
 40
0.577350269189625
 41
0.0
 42
6.283185307179586
  0
MTEXT
  5
121
330
1F
100
AcDbEntity
  8
chh-txt_Pen_No__7_Pen_No__7
  6
Continuous
100
AcDbMText
 10
421.2520147051902
 20
180.3215892727694
 30
0.0
 40
5.0
 41
0.0
 71
     7
 72
     1
  1
{Wall framing}
  7
GENERATED_STYLE_1
 73
     1
 44
1.0
  0
MTEXT
  5
145
330
1F
100
AcDbEntity
  8
chh-txt_Pen_No__7_Pen_No__7
  6
Continuous
100
AcDbMText
 10
421.2520147051902
 20
150.0074217201419
 30
0.0
 40
5.0
 41
0.0
 71
     7
 72
     1
  1
{Cavity batten}
  7
GENERATED_STYLE_1
 73
     1
 44
1.0
  0
MTEXT
  5
146
330
1F
100
AcDbEntity
  8
chh-txt_Pen_No__7_Pen_No__7
  6
Continuous
100
AcDbMText
 10
421.2520147051902
 20
-48.74193576309337
 30
0.0
 40
5.0
 41
0.0
 71
     7
 72
     1
  1
{Metal saddle flashing under parapet capping. }
  7
GENERATED_STYLE_1
 73
     1
 44
1.0
  0
MTEXT
  5
147
330
1F
100
AcDbEntity
  8
chh-txt_Pen_No__7_Pen_No__7
  6
Continuous
100
AcDbMText
 10
421.2520147051902
 20
-58.12462347031735
 30
0.0
 40
5.0
 41
0.0
 71
     7
 72
     1
  1
{Refer E2/AS1 Figure 13 for min dimensions.}
  7
GENERATED_STYLE_1
 73
     1
 44
1.0
  0
MTEXT
  5
148
330
1F
100
AcDbEntity
  8
chh-txt_Pen_No__7_Pen_No__7
  6
Continuous
100
AcDbMText
 10
421.2520147051902
 20
-243.5047526556753
 30
0.0
 40
5.0
 41
0.0
 71
     7
 72
     1
  1
{Parapet flashing with 5° fall to interior side. }
  7
GENERATED_STYLE_1
 73
     1
 44
1.0
  0
MTEXT
  5
149
330
1F
100
AcDbEntity
  8
chh-txt_Pen_No__7_Pen_No__7
  6
Continuous
100
AcDbMText
 10
421.2520147051902
 20
116.3646955709603
 30
0.0
 40
5.0
 41
0.0
 71
     7
 72
     1
  1
{Shadowclad}
  7
GENERATED_STYLE_1
 73
     1
 44
1.0
  0
MTEXT
  5
14A
330
1F
100
AcDbEntity
  8
chh-txt_Pen_No__7_Pen_No__7
  6
Continuous
100
AcDbMText
 10
421.2520147051902
 20
105.5569580431911
 30
0.0
 40
5.0
 41
0.0
 71
     7
 72
     1
  1
{Treat all Shadowclad cut edges with }
  7
GENERATED_STYLE_1
 73
     1
 44
1.0
  0
MTEXT
  5
14B
330
1F
100
AcDbEntity
  8
chh-txt_Pen_No__7_Pen_No__7
  6
Continuous
100
AcDbMText
 10
421.2520147051902
 20
97.57020786373626
 30
0.0
 40
5.0
 41
0.0
 71
     7
 72
     1
  1
{Holdfast Metalex Clear }
  7
GENERATED_STYLE_1
 73
     1
 44
1.0
  0
MTEXT
  5
14C
330
1F
100
AcDbEntity
  8
chh-txt_Pen_No__7_Pen_No__7
  6
Continuous
100
AcDbMText
 10
421.2520147051902
 20
-310.3632366626443
 30
0.0
 40
5.0
 41
0.0
 71
     7
 72
     1
  1
{Sloping packer with building underlay}
  7
GENERATED_STYLE_1
 73
     1
 44
1.0
  0
MTEXT
  5
14D
330
1F
100
AcDbEntity
  8
chh-txt_Pen_No__7_Pen_No__7
  6
Continuous
100
AcDbMText
 10
421.2520147051902
 20
-446.4428058994581
 30
0.0
 40
5.0
 41
0.0
 71
     7
 72
     1
  1
{Cavity batten}
  7
GENERATED_STYLE_1
 73
     1
 44
1.0
  0
MTEXT
  5
14E
330
1F
100
AcDbEntity
  8
chh-txt_Pen_No__7_Pen_No__7
  6
Continuous
100
AcDbMText
 10
421.2520147051902
 20
-539.3185427186182
 30
0.0
 40
5.0
 41
0.0
 71
     7
 72
     1
  1
{Building underlay continuous over top of }
  7
GENERATED_STYLE_1
 73
     1
 44
1.0
  0
MTEXT
  5
14F
330
1F
100
AcDbEntity
  8
chh-txt_Pen_No__7_Pen_No__7
  6
Continuous
100
AcDbMText
 10
421.2520147051902
 20
-377.9650641159113
 30
0.0
 40
5.0
 41
0.0
 71
     7
 72
     1
  1
{Wall framing}
  7
GENERATED_STYLE_1
 73
     1
 44
1.0
  0
MTEXT
  5
150
330
1F
100
AcDbEntity
  8
chh-txt_Pen_No__7_Pen_No__7
  6
Continuous
100
AcDbMText
 10
421.2520147051902
 20
-252.8874403628997
 30
0.0
 40
5.0
 41
0.0
 71
     7
 72
     1
  1
{Building underlay to provide insulation of }
  7
GENERATED_STYLE_1
 73
     1
 44
1.0
  0
MTEXT
  5
151
330
1F
100
AcDbEntity
  8
chh-txt_Pen_No__7_Pen_No__7
  6
Continuous
100
AcDbMText
 10
421.2520147051902
 20
-262.2992403628997
 30
0.0
 40
5.0
 41
0.0
 71
     7
 72
     1
  1
{metal flashing to timber.}
  7
GENERATED_STYLE_1
 73
     1
 44
1.0
  0
MTEXT
  5
152
330
1F
100
AcDbEntity
  8
chh-txt_Pen_No__7_Pen_No__7
  6
Continuous
100
AcDbMText
 10
421.2520147051902
 20
-135.1603845233149
 30
0.0
 40
5.0
 41
0.0
 71
     7
 72
     1
  1
{Rivet through sealant & seal capping to }
  7
GENERATED_STYLE_1
 73
     1
 44
1.0
  0
MTEXT
  5
153
330
1F
100
AcDbEntity
  8
chh-txt_Pen_No__7_Pen_No__7
  6
Continuous
100
AcDbMText
 10
421.2520147051902
 20
-70.32261440952799
 30
0.0
 40
5.0
 41
0.0
 71
     7
 72
     1
  1
{Flexible flashing tape dressed up & adhered }
  7
GENERATED_STYLE_1
 73
     1
 44
1.0
  0
MTEXT
  5
154
330
1F
100
AcDbEntity
  8
chh-txt_Pen_No__7_Pen_No__7
  6
Continuous
100
AcDbMText
 10
421.2520147051902
 20
-79.73441440952799
 30
0.0
 40
5.0
 41
0.0
 71
     7
 72
     1
  1
{to building underlay behind battens}
  7
GENERATED_STYLE_1
 73
     1
 44
1.0
  0
MTEXT
  5
155
330
1F
100
AcDbEntity
  8
chh-txt_Pen_No__7_Pen_No__7
  6
Continuous
100
AcDbMText
 10
421.2520147051902
 20
-199.5030859622568
 30
0.0
 40
5.0
 41
0.0
 71
     7
 72
     1
  1
{Flexible flashing tape to extend min 50mm }
  7
GENERATED_STYLE_1
 73
     1
 44
1.0
  0
MTEXT
  5
156
330
1F
100
AcDbEntity
  8
chh-txt_Pen_No__7_Pen_No__7
  6
Continuous
100
AcDbMText
 10
421.2520147051902
 20
-207.4607238489361
 30
0.0
 40
5.0
 41
0.0
 71
     7
 72
     1
  1
{down face of battens}
  7
GENERATED_STYLE_1
 73
     1
 44
1.0
  0
MTEXT
  5
157
330
1F
100
AcDbEntity
  8
chh-txt_Pen_No__7_Pen_No__7
  6
Continuous
100
AcDbMText
 10
421.2520147051902
 20
-555.818542718618
 30
0.0
 40
5.0
 41
0.0
 71
     7
 72
     1
  1
{wall framing}
  7
GENERATED_STYLE_1
 73
     1
 44
1.0
  0
MTEXT
  5
158
330
1F
100
AcDbEntity
  8
chh-txt_Pen_No__7_Pen_No__7
  6
Continuous
100
AcDbMText
 10
421.2520147051902
 20
-144.5430722305393
 30
0.0
 40
5.0
 41
0.0
 71
     7
 72
     1
  1
{saddle flashing across top. }
  7
GENERATED_STYLE_1
 73
     1
 44
1.0
  0
MTEXT
  5
159
330
1F
100
AcDbEntity
  8
Defpoints_Pen_No__211_Pen_No__115
  6
Continuous
100
AcDbMText
 10
-373.308586751423
 20
-577.9542270162151
 30
0.0
 40
10.0
 41
0.0
 71
     7
 72
     1
  1
{SC054 Shadowclad Balustrade to Wall Junction (Cavity)}
  7
GENERATED_STYLE_1
 73
     1
 44
1.0
  0
ENDSEC
  0
SECTION
  2
OBJECTS
  0
DICTIONARY
  5
C
330
0
100
AcDbDictionary
281
     1
  3
ACAD_GROUP
350
D
  3
ACAD_LAYOUT
350
1A
  3
ACAD_MLEADERSTYLE
350
163
  3
ACAD_MLINESTYLE
350
17
  3
ACAD_PLOTSETTINGS
350
19
  3
ACAD_PLOTSTYLENAME
350
E
  3
ACAD_SCALELIST
350
123
  3
ACAD_TABLESTYLE
350
162
  3
ACAD_VISUALSTYLE
350
2A
  3
AcDbVariableDictionary
350
160
  3
WATERMARKS
350
15E
  0
DICTIONARY
  5
D
102
{ACAD_REACTORS
330
C
102
}
330
C
100
AcDbDictionary
281
     1
  0
DICTIONARY
  5
1A
102
{ACAD_REACTORS
330
C
102
}
330
C
100
AcDbDictionary
281
     1
  3
Layout1
350
1E
  3
Layout2
350
26
  3
Model
350
22
  0
DICTIONARY
  5
163
102
{ACAD_REACTORS
330
C
102
}
330
C
100
AcDbDictionary
281
     1
  0
DICTIONARY
  5
17
102
{ACAD_REACTORS
330
C
102
}
330
C
100
AcDbDictionary
281
     1
  3
Standard
350
18
  0
DICTIONARY
  5
19
102
{ACAD_REACTORS
330
C
102
}
330
C
100
AcDbDictionary
281
     1
  0
ACDBDICTIONARYWDFLT
  5
E
102
{ACAD_REACTORS
330
C
102
}
330
C
100
AcDbDictionary
281
     1
  3
Normal
350
F
100
AcDbDictionaryWithDefault
340
F
  0
DICTIONARY
  5
123
102
{ACAD_REACTORS
330
C
102
}
330
C
100
AcDbDictionary
281
     1
  3
A0
350
124
  3
A1
350
125
  3
A2
350
126
  3
A3
350
127
  3
A4
350
128
  3
A5
350
129
  3
A6
350
12A
  3
A7
350
12B
  3
A8
350
12C
  3
A9
350
12D
  3
B0
350
12E
  3
B1
350
12F
  3
B2
350
130
  3
B3
350
131
  3
B4
350
132
  3
B5
350
133
  3
B6
350
134
  3
B7
350
135
  3
B8
350
136
  3
B9
350
137
  3
C0
350
138
  3
C1
350
139
  3
C2
350
13A
  3
C3
350
13B
  3
C4
350
13C
  3
C5
350
13D
  3
C6
350
13E
  3
C7
350
13F
  3
C8
350
140
  3
C9
350
141
  3
D0
350
142
  3
D1
350
143
  3
D2
350
144
  0
DICTIONARY
  5
162
102
{ACAD_REACTORS
330
C
102
}
330
C
100
AcDbDictionary
281
     1
  0
DICTIONARY
  5
2A
102
{ACAD_REACTORS
330
C
102
}
330
C
100
AcDbDictionary
281
     1
  3
2dWireframe
350
2F
  3
3D Hidden
350
31
  3
3dWireframe
350
30
  3
Basic
350
32
  3
Brighten
350
36
  3
ColorChange
350
3A
  3
Conceptual
350
34
  3
Dim
350
35
  3
Facepattern
350
39
  3
Flat
350
2B
  3
FlatWithEdges
350
2C
  3
Gouraud
350
2D
  3
GouraudWithEdges
350
2E
  3
Linepattern
350
38
  3
Realistic
350
33
  3
Thicken
350
37
  0
DICTIONARY
  5
160
102
{ACAD_REACTORS
330
C
102
}
330
C
100
AcDbDictionary
281
     1
  3
CANNOSCALE
350
161
  0
DICTIONARY
  5
15E
102
{ACAD_REACTORS
330
C
102
}
330
C
100
AcDbDictionary
281
     1
  3
AC_WATERMARK
350
15F
  0
LAYOUT
  5
1E
102
{ACAD_REACTORS
330
1A
102
}
330
1A
100
AcDbPlotSettings
  1

  2
none_device
  4

  6

 40
0.0
 41
0.0
 42
0.0
 43
0.0
 44
0.0
 45
0.0
 46
0.0
 47
0.0
 48
0.0
 49
0.0
140
0.0
141
0.0
142
1.0
143
1.0
 70
   688
 72
     0
 73
     0
 74
     5
  7

 75
    16
 76
     0
 77
     2
 78
   300
147
1.0
148
0.0
149
0.0
100
AcDbLayout
  1
Layout1
 70
     1
 71
     1
 10
0.0
 20
0.0
 11
12.0
 21
9.0
 12
0.0
 22
0.0
 32
0.0
 14
1.000000000000000E+20
 24
1.000000000000000E+20
 34
1.000000000000000E+20
 15
-1.000000000000000E+20
 25
-1.000000000000000E+20
 35
-1.000000000000000E+20
146
0.0
 13
0.0
 23
0.0
 33
0.0
 16
1.0
 26
0.0
 36
0.0
 17
0.0
 27
1.0
 37
0.0
 76
     0
330
1B
  0
LAYOUT
  5
26
102
{ACAD_REACTORS
330
1A
102
}
330
1A
100
AcDbPlotSettings
  1

  2
none_device
  4

  6

 40
0.0
 41
0.0
 42
0.0
 43
0.0
 44
0.0
 45
0.0
 46
0.0
 47
0.0
 48
0.0
 49
0.0
140
0.0
141
0.0
142
1.0
143
1.0
 70
   688
 72
     0
 73
     0
 74
     5
  7

 75
    16
 76
     0
 77
     2
 78
   300
147
1.0
148
0.0
149
0.0
100
AcDbLayout
  1
Layout2
 70
     1
 71
     2
 10
0.0
 20
0.0
 11
0.0
 21
0.0
 12
0.0
 22
0.0
 32
0.0
 14
0.0
 24
0.0
 34
0.0
 15
0.0
 25
0.0
 35
0.0
146
0.0
 13
0.0
 23
0.0
 33
0.0
 16
1.0
 26
0.0
 36
0.0
 17
0.0
 27
1.0
 37
0.0
 76
     0
330
23
  0
LAYOUT
  5
22
102
{ACAD_REACTORS
330
1A
102
}
330
1A
100
AcDbPlotSettings
  1

  2
none_device
  4

  6

 40
0.0
 41
0.0
 42
0.0
 43
0.0
 44
0.0
 45
0.0
 46
0.0
 47
0.0
 48
0.0
 49
0.0
140
0.0
141
0.0
142
1.0
143
1.0
 70
  1712
 72
     0
 73
     0
 74
     0
  7

 75
     0
 76
     0
 77
     2
 78
   300
147
1.0
148
0.0
149
0.0
100
AcDbLayout
  1
Model
 70
     1
 71
     0
 10
0.0
 20
0.0
 11
12.0
 21
9.0
 12
0.0
 22
0.0
 32
0.0
 14
1.000000000000000E+20
 24
1.000000000000000E+20
 34
1.000000000000000E+20
 15
-1.000000000000000E+20
 25
-1.000000000000000E+20
 35
-1.000000000000000E+20
146
0.0
 13
0.0
 23
0.0
 33
0.0
 16
1.0
 26
0.0
 36
0.0
 17
0.0
 27
1.0
 37
0.0
 76
     0
330
1F
331
29
  0
MLINESTYLE
  5
18
102
{ACAD_REACTORS
330
17
102
}
330
17
100
AcDbMlineStyle
  2
Standard
 70
     0
  3

 62
   256
 51
90.0
 52
90.0
 71
     2
 49
0.5
 62
   256
  6
BYLAYER
 49
-0.5
 62
   256
  6
BYLAYER
  0
ACDBPLACEHOLDER
  5
F
102
{ACAD_REACTORS
330
E
102
}
330
E
  0
SCALE
  5
124
102
{ACAD_REACTORS
330
123
102
}
330
123
100
AcDbScale
 70
     0
300
1:1
140
1.0
141
1.0
290
     1
  0
SCALE
  5
125
102
{ACAD_REACTORS
330
123
102
}
330
123
100
AcDbScale
 70
     0
300
1:2
140
1.0
141
2.0
290
     0
  0
SCALE
  5
126
102
{ACAD_REACTORS
330
123
102
}
330
123
100
AcDbScale
 70
     0
300
1:4
140
1.0
141
4.0
290
     0
  0
SCALE
  5
127
102
{ACAD_REACTORS
330
123
102
}
330
123
100
AcDbScale
 70
     0
300
1:5
140
1.0
141
5.0
290
     0
  0
SCALE
  5
128
102
{ACAD_REACTORS
330
123
102
}
330
123
100
AcDbScale
 70
     0
300
1:8
140
1.0
141
8.0
290
     0
  0
SCALE
  5
129
102
{ACAD_REACTORS
330
123
102
}
330
123
100
AcDbScale
 70
     0
300
1:10
140
1.0
141
10.0
290
     0
  0
SCALE
  5
12A
102
{ACAD_REACTORS
330
123
102
}
330
123
100
AcDbScale
 70
     0
300
1:16
140
1.0
141
16.0
290
     0
  0
SCALE
  5
12B
102
{ACAD_REACTORS
330
123
102
}
330
123
100
AcDbScale
 70
     0
300
1:20
140
1.0
141
20.0
290
     0
  0
SCALE
  5
12C
102
{ACAD_REACTORS
330
123
102
}
330
123
100
AcDbScale
 70
     0
300
1:30
140
1.0
141
30.0
290
     0
  0
SCALE
  5
12D
102
{ACAD_REACTORS
330
123
102
}
330
123
100
AcDbScale
 70
     0
300
1:40
140
1.0
141
40.0
290
     0
  0
SCALE
  5
12E
102
{ACAD_REACTORS
330
123
102
}
330
123
100
AcDbScale
 70
     0
300
1:50
140
1.0
141
50.0
290
     0
  0
SCALE
  5
12F
102
{ACAD_REACTORS
330
123
102
}
330
123
100
AcDbScale
 70
     0
300
1:100
140
1.0
141
100.0
290
     0
  0
SCALE
  5
130
102
{ACAD_REACTORS
330
123
102
}
330
123
100
AcDbScale
 70
     0
300
2:1
140
2.0
141
1.0
290
     0
  0
SCALE
  5
131
102
{ACAD_REACTORS
330
123
102
}
330
123
100
AcDbScale
 70
     0
300
4:1
140
4.0
141
1.0
290
     0
  0
SCALE
  5
132
102
{ACAD_REACTORS
330
123
102
}
330
123
100
AcDbScale
 70
     0
300
8:1
140
8.0
141
1.0
290
     0
  0
SCALE
  5
133
102
{ACAD_REACTORS
330
123
102
}
330
123
100
AcDbScale
 70
     0
300
10:1
140
10.0
141
1.0
290
     0
  0
SCALE
  5
134
102
{ACAD_REACTORS
330
123
102
}
330
123
100
AcDbScale
 70
     0
300
100:1
140
100.0
141
1.0
290
     0
  0
SCALE
  5
135
102
{ACAD_REACTORS
330
123
102
}
330
123
100
AcDbScale
 70
     0
300
1/128" = 1'-0"
140
0.0078125
141
12.0
290
     0
  0
SCALE
  5
136
102
{ACAD_REACTORS
330
123
102
}
330
123
100
AcDbScale
 70
     0
300
1/64" = 1'-0"
140
0.015625
141
12.0
290
     0
  0
SCALE
  5
137
102
{ACAD_REACTORS
330
123
102
}
330
123
100
AcDbScale
 70
     0
300
1/32" = 1'-0"
140
0.03125
141
12.0
290
     0
  0
SCALE
  5
138
102
{ACAD_REACTORS
330
123
102
}
330
123
100
AcDbScale
 70
     0
300
1/16" = 1'-0"
140
0.0625
141
12.0
290
     0
  0
SCALE
  5
139
102
{ACAD_REACTORS
330
123
102
}
330
123
100
AcDbScale
 70
     0
300
3/32" = 1'-0"
140
0.09375
141
12.0
290
     0
  0
SCALE
  5
13A
102
{ACAD_REACTORS
330
123
102
}
330
123
100
AcDbScale
 70
     0
300
1/8" = 1'-0"
140
0.125
141
12.0
290
     0
  0
SCALE
  5
13B
102
{ACAD_REACTORS
330
123
102
}
330
123
100
AcDbScale
 70
     0
300
3/16" = 1'-0"
140
0.1875
141
12.0
290
     0
  0
SCALE
  5
13C
102
{ACAD_REACTORS
330
123
102
}
330
123
100
AcDbScale
 70
     0
300
1/4" = 1'-0"
140
0.25
141
12.0
290
     0
  0
SCALE
  5
13D
102
{ACAD_REACTORS
330
123
102
}
330
123
100
AcDbScale
 70
     0
300
3/8" = 1'-0"
140
0.375
141
12.0
290
     0
  0
SCALE
  5
13E
102
{ACAD_REACTORS
330
123
102
}
330
123
100
AcDbScale
 70
     0
300
1/2" = 1'-0"
140
0.5
141
12.0
290
     0
  0
SCALE
  5
13F
102
{ACAD_REACTORS
330
123
102
}
330
123
100
AcDbScale
 70
     0
300
3/4" = 1'-0"
140
0.75
141
12.0
290
     0
  0
SCALE
  5
140
102
{ACAD_REACTORS
330
123
102
}
330
123
100
AcDbScale
 70
     0
300
1" = 1'-0"
140
1.0
141
12.0
290
     0
  0
SCALE
  5
141
102
{ACAD_REACTORS
330
123
102
}
330
123
100
AcDbScale
 70
     0
300
1-1/2" = 1'-0"
140
1.5
141
12.0
290
     0
  0
SCALE
  5
142
102
{ACAD_REACTORS
330
123
102
}
330
123
100
AcDbScale
 70
     0
300
3" = 1'-0"
140
3.0
141
12.0
290
     0
  0
SCALE
  5
143
102
{ACAD_REACTORS
330
123
102
}
330
123
100
AcDbScale
 70
     0
300
6" = 1'-0"
140
6.0
141
12.0
290
     0
  0
SCALE
  5
144
102
{ACAD_REACTORS
330
123
102
}
330
123
100
AcDbScale
 70
     0
300
1'-0" = 1'-0"
140
12.0
141
12.0
290
     0
  0
VISUALSTYLE
  5
2F
102
{ACAD_REACTORS
330
2A
102
}
330
2A
100
AcDbVisualStyle
  2
2dWireframe
 70
     4
 71
     0
 72
     2
 73
     0
 90
        0
 40
-0.6
 41
-30.0
 62
     5
 63
     7
421
 16777215
 74
     1
 91
        4
 64
     7
 65
   257
 75
     1
175
     1
 42
1.0
 92
        0
 66
   257
 43
1.0
 76
     1
 77
     6
 78
     2
 67
     7
 79
     5
170
     0
171
     0
290
     0
174
     0
 93
        1
 44
0.0
173
     0
291
     0
 45
0.0
1001
ACAD
1000
AcDbSavedByObjectVersion
1070
     0
  0
VISUALSTYLE
  5
31
102
{ACAD_REACTORS
330
2A
102
}
330
2A
100
AcDbVisualStyle
  2
3D Hidden
 70
     6
 71
     1
 72
     2
 73
     2
 90
        0
 40
-0.6
 41
-30.0
 62
     5
 63
     7
421
 16777215
 74
     2
 91
        2
 64
     7
 65
   257
 75
     2
175
     1
 42
40.0
 92
        0
 66
   257
 43
1.0
 76
     1
 77
     6
 78
     2
 67
     7
 79
     3
170
     0
171
     0
290
     0
174
     0
 93
        1
 44
0.0
173
     0
291
     0
 45
0.0
1001
ACAD
1000
AcDbSavedByObjectVersion
1070
     0
  0
VISUALSTYLE
  5
30
102
{ACAD_REACTORS
330
2A
102
}
330
2A
100
AcDbVisualStyle
  2
3dWireframe
 70
     5
 71
     0
 72
     2
 73
     0
 90
        0
 40
-0.6
 41
-30.0
 62
     5
 63
     7
421
 16777215
 74
     1
 91
        4
 64
     7
 65
   257
 75
     1
175
     1
 42
1.0
 92
        0
 66
   257
 43
1.0
 76
     1
 77
     6
 78
     2
 67
     7
 79
     5
170
     0
171
     0
290
     0
174
     0
 93
        1
 44
0.0
173
     0
291
     0
 45
0.0
1001
ACAD
1000
AcDbSavedByObjectVersion
1070
     0
  0
VISUALSTYLE
  5
32
102
{ACAD_REACTORS
330
2A
102
}
330
2A
100
AcDbVisualStyle
  2
Basic
 70
     7
 71
     1
 72
     0
 73
     1
 90
        0
 40
-0.6
 41
-30.0
 62
     5
 63
     7
421
 16777215
 74
     0
 91
        4
 64
     7
 65
   257
 75
     1
175
     1
 42
1.0
 92
        8
 66
     7
 43
1.0
 76
     1
 77
     6
 78
     2
 67
     7
 79
     5
170
     0
171
     0
290
     0
174
     0
 93
        1
 44
0.0
173
     0
291
     1
 45
0.0
1001
ACAD
1000
AcDbSavedByObjectVersion
1070
     0
  0
VISUALSTYLE
  5
36
102
{ACAD_REACTORS
330
2A
102
}
330
2A
100
AcDbVisualStyle
  2
Brighten
 70
    12
 71
     2
 72
     2
 73
     0
 90
        0
 40
-0.6
 41
-30.0
 62
     5
 63
     7
421
 16777215
 74
     1
 91
        4
 64
     7
 65
   257
 75
     1
175
     1
 42
1.0
 92
        8
 66
     7
 43
1.0
 76
     1
 77
     6
 78
     2
 67
     7
 79
     5
170
     0
171
     0
290
     0
174
     0
 93
        1
 44
50.0
173
     0
291
     1
 45
0.0
1001
ACAD
1000
AcDbSavedByObjectVersion
1070
     0
  0
VISUALSTYLE
  5
3A
102
{ACAD_REACTORS
330
2A
102
}
330
2A
100
AcDbVisualStyle
  2
ColorChange
 70
    16
 71
     2
 72
     2
 73
     3
 90
        0
 40
-0.6
 41
-30.0
 62
     5
 63
     8
421
  8421504
 74
     1
 91
        4
 64
     7
 65
   257
 75
     1
175
     1
 42
1.0
 92
        8
 66
     8
424
  8421504
 43
1.0
 76
     1
 77
     6
 78
     2
 67
     7
 79
     5
170
     0
171
     0
290
     0
174
     0
 93
        1
 44
0.0
173
     0
291
     1
 45
0.0
1001
ACAD
1000
AcDbSavedByObjectVersion
1070
     0
  0
VISUALSTYLE
  5
34
102
{ACAD_REACTORS
330
2A
102
}
330
2A
100
AcDbVisualStyle
  2
Conceptual
 70
     9
 71
     3
 72
     2
 73
     0
 90
        0
 40
-0.6
 41
-30.0
 62
     5
 63
     7
421
 16777215
 74
     2
 91
        2
 64
     7
 65
   257
 75
     1
175
     1
 42
40.0
 92
        8
 66
     7
 43
1.0
 76
     1
 77
     6
 78
     2
 67
     7
 79
     3
170
     0
171
     0
290
     0
174
     0
 93
        1
 44
0.0
173
     0
291
     0
 45
0.0
1001
ACAD
1000
AcDbSavedByObjectVersion
1070
     0
  0
VISUALSTYLE
  5
35
102
{ACAD_REACTORS
330
2A
102
}
330
2A
100
AcDbVisualStyle
  2
Dim
 70
    11
 71
     2
 72
     2
 73
     0
 90
        0
 40
-0.6
 41
-30.0
 62
     5
 63
     7
421
 16777215
 74
     1
 91
        4
 64
     7
 65
   257
 75
     1
175
     1
 42
1.0
 92
        8
 66
     7
 43
1.0
 76
     1
 77
     6
 78
     2
 67
     7
 79
     5
170
     0
171
     0
290
     0
174
     0
 93
        1
 44
-50.0
173
     0
291
     1
 45
0.0
1001
ACAD
1000
AcDbSavedByObjectVersion
1070
     0
  0
VISUALSTYLE
  5
39
102
{ACAD_REACTORS
330
2A
102
}
330
2A
100
AcDbVisualStyle
  2
Facepattern
 70
    15
 71
     2
 72
     2
 73
     0
 90
        0
 40
-0.6
 41
-30.0
 62
     5
 63
     7
421
 16777215
 74
     1
 91
        4
 64
     7
 65
   257
 75
     1
175
     1
 42
1.0
 92
        8
 66
     7
 43
1.0
 76
     1
 77
     6
 78
     2
 67
     7
 79
     5
170
     0
171
     0
290
     0
174
     0
 93
        1
 44
0.0
173
     0
291
     1
 45
0.0
1001
ACAD
1000
AcDbSavedByObjectVersion
1070
     0
  0
VISUALSTYLE
  5
2B
102
{ACAD_REACTORS
330
2A
102
}
330
2A
100
AcDbVisualStyle
  2
Flat
 70
     0
 71
     2
 72
     1
 73
     1
 90
        2
 40
-0.6
 41
30.0
 62
     5
 63
     7
421
 16777215
 74
     0
 91
        4
 64
     7
 65
   257
 75
     1
175
     1
 42
1.0
 92
        8
 66
     7
 43
1.0
 76
     1
 77
     6
 78
     2
 67
     7
 79
     5
170
     0
171
     0
290
     0
174
     0
 93
       13
 44
0.0
173
     0
291
     1
 45
0.0
1001
ACAD
1000
AcDbSavedByObjectVersion
1070
     0
  0
VISUALSTYLE
  5
2C
102
{ACAD_REACTORS
330
2A
102
}
330
2A
100
AcDbVisualStyle
  2
FlatWithEdges
 70
     1
 71
     2
 72
     1
 73
     1
 90
        2
 40
-0.6
 41
30.0
 62
     5
 63
     7
421
 16777215
 74
     1
 91
        4
 64
     7
 65
   257
 75
     1
175
     1
 42
1.0
 92
        0
 66
   257
 43
1.0
 76
     1
 77
     6
 78
     2
 67
     7
 79
     5
170
     0
171
     0
290
     0
174
     0
 93
       13
 44
0.0
173
     0
291
     1
 45
0.0
1001
ACAD
1000
AcDbSavedByObjectVersion
1070
     0
  0
VISUALSTYLE
  5
2D
102
{ACAD_REACTORS
330
2A
102
}
330
2A
100
AcDbVisualStyle
  2
Gouraud
 70
     2
 71
     2
 72
     2
 73
     1
 90
        2
 40
-0.6
 41
30.0
 62
     5
 63
     7
421
 16777215
 74
     0
 91
        4
 64
     7
 65
   257
 75
     1
175
     1
 42
1.0
 92
        0
 66
     7
 43
1.0
 76
     1
 77
     6
 78
     2
 67
     7
 79
     5
170
     0
171
     0
290
     0
174
     0
 93
       13
 44
0.0
173
     0
291
     1
 45
0.0
1001
ACAD
1000
AcDbSavedByObjectVersion
1070
     0
  0
VISUALSTYLE
  5
2E
102
{ACAD_REACTORS
330
2A
102
}
330
2A
100
AcDbVisualStyle
  2
GouraudWithEdges
 70
     3
 71
     2
 72
     2
 73
     1
 90
        2
 40
-0.6
 41
30.0
 62
     5
 63
     7
421
 16777215
 74
     1
 91
        4
 64
     7
 65
   257
 75
     1
175
     1
 42
1.0
 92
        0
 66
   257
 43
1.0
 76
     1
 77
     6
 78
     2
 67
     7
 79
     5
170
     0
171
     0
290
     0
174
     0
 93
       13
 44
0.0
173
     0
291
     1
 45
0.0
1001
ACAD
1000
AcDbSavedByObjectVersion
1070
     0
  0
VISUALSTYLE
  5
38
102
{ACAD_REACTORS
330
2A
102
}
330
2A
100
AcDbVisualStyle
  2
Linepattern
 70
    14
 71
     2
 72
     2
 73
     0
 90
        0
 40
-0.6
 41
-30.0
 62
     5
 63
     7
421
 16777215
 74
     1
 91
        4
 64
     7
 65
   257
 75
     7
175
     7
 42
1.0
 92
        8
 66
     7
 43
1.0
 76
     1
 77
     6
 78
     2
 67
     7
 79
     5
170
     0
171
     0
290
     0
174
     0
 93
        1
 44
0.0
173
     0
291
     1
 45
0.0
1001
ACAD
1000
AcDbSavedByObjectVersion
1070
     0
  0
VISUALSTYLE
  5
33
102
{ACAD_REACTORS
330
2A
102
}
330
2A
100
AcDbVisualStyle
  2
Realistic
 70
     8
 71
     2
 72
     2
 73
     0
 90
        0
 40
-0.6
 41
-30.0
 62
     5
 63
     7
421
 16777215
 74
     1
 91
        0
 64
     7
 65
   257
 75
     1
175
     1
 42
1.0
 92
        8
 66
     8
424
  7895160
 43
1.0
 76
     1
 77
     6
 78
     2
 67
     7
 79
     5
170
     0
171
     0
290
     0
174
     0
 93
       13
 44
0.0
173
     0
291
     0
 45
0.0
1001
ACAD
1000
AcDbSavedByObjectVersion
1070
     0
  0
VISUALSTYLE
  5
37
102
{ACAD_REACTORS
330
2A
102
}
330
2A
100
AcDbVisualStyle
  2
Thicken
 70
    13
 71
     2
 72
     2
 73
     0
 90
        0
 40
-0.6
 41
-30.0
 62
     5
 63
     7
421
 16777215
 74
     1
 91
        4
 64
     7
 65
   257
 75
     1
175
     1
 42
1.0
 92
       12
 66
     7
 43
1.0
 76
     1
 77
     6
 78
     2
 67
     7
 79
     5
170
     0
171
     0
290
     0
174
     0
 93
        1
 44
0.0
173
     0
291
     1
 45
0.0
1001
ACAD
1000
AcDbSavedByObjectVersion
1070
     0
  0
DICTIONARYVAR
  5
161
102
{ACAD_REACTORS
330
160
102
}
330
160
100
DictionaryVariables
280
     0
  1
1:1
  0
XRECORD
  5
15F
102
{ACAD_REACTORS
330
15E
102
}
330
15E
100
AcDbXrecord
280
     1
1000
This DWG file was created in ArchiCAD(TM)®
  0
ENDSEC
  0
EOF
