  0
SECTION
  2
HEADER
  9
$ACADVER
  1
AC1018
  9
$ACADMAINTVER
 70
     0
  9
$DWGCODEPAGE
  3
ANSI_1252
  9
$INSBASE
 10
0.0
 20
0.0
 30
0.0
  9
$EXTMIN
 10
1.000000000000000E+20
 20
1.000000000000000E+20
 30
1.000000000000000E+20
  9
$EXTMAX
 10
-1.000000000000000E+20
 20
-1.000000000000000E+20
 30
-1.000000000000000E+20
  9
$LIMMIN
 10
0.0
 20
0.0
  9
$LIMMAX
 10
12.0
 20
9.0
  9
$ORTHOMODE
 70
     0
  9
$REGENMODE
 70
     1
  9
$FILLMODE
 70
     1
  9
$QTEXTMODE
 70
     0
  9
$MIRRTEXT
 70
     1
  9
$LTSCALE
 40
1.0
  9
$ATTMODE
 70
     1
  9
$TEXTSIZE
 40
0.2
  9
$TRACEWID
 40
0.05
  9
$TEXTSTYLE
  7
Standard
  9
$CLAYER
  8
0
  9
$CELTYPE
  6
ByLayer
  9
$CECOLOR
 62
   256
  9
$CELTSCALE
 40
1.0
  9
$DISPSILH
 70
     0
  9
$DIMSCALE
 40
1.0
  9
$DIMASZ
 40
0.18
  9
$DIMEXO
 40
0.0625
  9
$DIMDLI
 40
0.38
  9
$DIMRND
 40
0.0
  9
$DIMDLE
 40
0.0
  9
$DIMEXE
 40
0.18
  9
$DIMTP
 40
0.0
  9
$DIMTM
 40
0.0
  9
$DIMTXT
 40
0.18
  9
$DIMCEN
 40
0.09
  9
$DIMTSZ
 40
0.0
  9
$DIMTOL
 70
     0
  9
$DIMLIM
 70
     0
  9
$DIMTIH
 70
     1
  9
$DIMTOH
 70
     1
  9
$DIMSE1
 70
     0
  9
$DIMSE2
 70
     0
  9
$DIMTAD
 70
     0
  9
$DIMZIN
 70
     0
  9
$DIMBLK
  1

  9
$DIMASO
 70
     1
  9
$DIMSHO
 70
     1
  9
$DIMPOST
  1

  9
$DIMAPOST
  1

  9
$DIMALT
 70
     0
  9
$DIMALTD
 70
     2
  9
$DIMALTF
 40
25.4
  9
$DIMLFAC
 40
1.0
  9
$DIMTOFL
 70
     0
  9
$DIMTVP
 40
0.0
  9
$DIMTIX
 70
     0
  9
$DIMSOXD
 70
     0
  9
$DIMSAH
 70
     0
  9
$DIMBLK1
  1

  9
$DIMBLK2
  1

  9
$DIMSTYLE
  2
Standard
  9
$DIMCLRD
 70
     0
  9
$DIMCLRE
 70
     0
  9
$DIMCLRT
 70
     0
  9
$DIMTFAC
 40
1.0
  9
$DIMGAP
 40
0.09
  9
$DIMJUST
 70
     0
  9
$DIMSD1
 70
     0
  9
$DIMSD2
 70
     0
  9
$DIMTOLJ
 70
     1
  9
$DIMTZIN
 70
     0
  9
$DIMALTZ
 70
     0
  9
$DIMALTTZ
 70
     0
  9
$DIMUPT
 70
     0
  9
$DIMDEC
 70
     4
  9
$DIMTDEC
 70
     4
  9
$DIMALTU
 70
     2
  9
$DIMALTTD
 70
     2
  9
$DIMTXSTY
  7
Standard
  9
$DIMAUNIT
 70
     0
  9
$DIMADEC
 70
     0
  9
$DIMALTRND
 40
0.0
  9
$DIMAZIN
 70
     0
  9
$DIMDSEP
 70
    46
  9
$DIMATFIT
 70
     3
  9
$DIMFRAC
 70
     0
  9
$DIMLDRBLK
  1

  9
$DIMLUNIT
 70
     2
  9
$DIMLWD
 70
    -2
  9
$DIMLWE
 70
    -2
  9
$DIMTMOVE
 70
     0
  9
$LUNITS
 70
     2
  9
$LUPREC
 70
     4
  9
$SKETCHINC
 40
0.1
  9
$FILLETRAD
 40
0.5
  9
$AUNITS
 70
     0
  9
$AUPREC
 70
     0
  9
$MENU
  1
.
  9
$ELEVATION
 40
0.0
  9
$PELEVATION
 40
0.0
  9
$THICKNESS
 40
0.0
  9
$LIMCHECK
 70
     0
  9
$CHAMFERA
 40
0.5
  9
$CHAMFERB
 40
0.5
  9
$CHAMFERC
 40
1.0
  9
$CHAMFERD
 40
0.0
  9
$SKPOLY
 70
     0
  9
$TDCREATE
 40
2455966.725270116
  9
$TDUCREATE
 40
2455966.183603449
  9
$TDUPDATE
 40
2455966.725270127
  9
$TDUUPDATE
 40
2455966.18360346
  9
$TDINDWG
 40
0.0000000116
  9
$TDUSRTIMER
 40
0.0000000116
  9
$USRTIMER
 70
     1
  9
$ANGBASE
 50
0.0
  9
$ANGDIR
 70
     0
  9
$PDMODE
 70
     0
  9
$PDSIZE
 40
0.0
  9
$PLINEWID
 40
0.0
  9
$SPLFRAME
 70
     0
  9
$SPLINETYPE
 70
     6
  9
$SPLINESEGS
 70
     8
  9
$HANDSEED
  5
107
  9
$SURFTAB1
 70
     6
  9
$SURFTAB2
 70
     6
  9
$SURFTYPE
 70
     6
  9
$SURFU
 70
     6
  9
$SURFV
 70
     6
  9
$UCSBASE
  2

  9
$UCSNAME
  2

  9
$UCSORG
 10
0.0
 20
0.0
 30
0.0
  9
$UCSXDIR
 10
1.0
 20
0.0
 30
0.0
  9
$UCSYDIR
 10
0.0
 20
1.0
 30
0.0
  9
$UCSORTHOREF
  2

  9
$UCSORTHOVIEW
 70
     0
  9
$UCSORGTOP
 10
0.0
 20
0.0
 30
0.0
  9
$UCSORGBOTTOM
 10
0.0
 20
0.0
 30
0.0
  9
$UCSORGLEFT
 10
0.0
 20
0.0
 30
0.0
  9
$UCSORGRIGHT
 10
0.0
 20
0.0
 30
0.0
  9
$UCSORGFRONT
 10
0.0
 20
0.0
 30
0.0
  9
$UCSORGBACK
 10
0.0
 20
0.0
 30
0.0
  9
$PUCSBASE
  2

  9
$PUCSNAME
  2

  9
$PUCSORG
 10
0.0
 20
0.0
 30
0.0
  9
$PUCSXDIR
 10
1.0
 20
0.0
 30
0.0
  9
$PUCSYDIR
 10
0.0
 20
1.0
 30
0.0
  9
$PUCSORTHOREF
  2

  9
$PUCSORTHOVIEW
 70
     0
  9
$PUCSORGTOP
 10
0.0
 20
0.0
 30
0.0
  9
$PUCSORGBOTTOM
 10
0.0
 20
0.0
 30
0.0
  9
$PUCSORGLEFT
 10
0.0
 20
0.0
 30
0.0
  9
$PUCSORGRIGHT
 10
0.0
 20
0.0
 30
0.0
  9
$PUCSORGFRONT
 10
0.0
 20
0.0
 30
0.0
  9
$PUCSORGBACK
 10
0.0
 20
0.0
 30
0.0
  9
$USERI1
 70
     0
  9
$USERI2
 70
     0
  9
$USERI3
 70
     0
  9
$USERI4
 70
     0
  9
$USERI5
 70
     0
  9
$USERR1
 40
0.0
  9
$USERR2
 40
0.0
  9
$USERR3
 40
0.0
  9
$USERR4
 40
0.0
  9
$USERR5
 40
0.0
  9
$WORLDVIEW
 70
     1
  9
$SHADEDGE
 70
     3
  9
$SHADEDIF
 70
    70
  9
$TILEMODE
 70
     1
  9
$MAXACTVP
 70
    64
  9
$PINSBASE
 10
0.0
 20
0.0
 30
0.0
  9
$PLIMCHECK
 70
     0
  9
$PEXTMIN
 10
1.000000000000000E+20
 20
1.000000000000000E+20
 30
1.000000000000000E+20
  9
$PEXTMAX
 10
-1.000000000000000E+20
 20
-1.000000000000000E+20
 30
-1.000000000000000E+20
  9
$PLIMMIN
 10
0.0
 20
0.0
  9
$PLIMMAX
 10
12.0
 20
9.0
  9
$UNITMODE
 70
     0
  9
$VISRETAIN
 70
     1
  9
$PLINEGEN
 70
     0
  9
$PSLTSCALE
 70
     1
  9
$TREEDEPTH
 70
  3020
  9
$CMLSTYLE
  2
Standard
  9
$CMLJUST
 70
     0
  9
$CMLSCALE
 40
1.0
  9
$PROXYGRAPHICS
 70
     1
  9
$MEASUREMENT
 70
     0
  9
$CELWEIGHT
370
    -1
  9
$ENDCAPS
280
     0
  9
$JOINSTYLE
280
     0
  9
$LWDISPLAY
290
     1
  9
$INSUNITS
 70
     0
  9
$HYPERLINKBASE
  1

  9
$STYLESHEET
  1

  9
$XEDIT
290
     1
  9
$CEPSNTYPE
380
     0
  9
$PSTYLEMODE
290
     1
  9
$FINGERPRINTGUID
  2
{51EA433A-04E8-4154-B96A-18A5DF154E02}
  9
$VERSIONGUID
  2
{FAEB1C32-E019-11D5-929B-00C0DF256EC4}
  9
$EXTNAMES
290
     1
  9
$PSVPSCALE
 40
0.0
  9
$OLESTARTUP
290
     0
  9
$SORTENTS
280
   127
  9
$INDEXCTL
280
     0
  9
$HIDETEXT
280
     1
  9
$XCLIPFRAME
290
     0
  9
$HALOGAP
280
     0
  9
$OBSCOLOR
 70
   257
  9
$OBSLTYPE
280
     0
  9
$INTERSECTIONDISPLAY
280
     0
  9
$INTERSECTIONCOLOR
 70
   257
  9
$DIMASSOC
280
     2
  9
$PROJECTNAME
  1

  0
ENDSEC
  0
SECTION
  2
CLASSES
  0
CLASS
  1
ACDBDICTIONARYWDFLT
  2
AcDbDictionaryWithDefault
  3
ObjectDBX Classes
 90
        0
 91
        4
280
     0
281
     0
  0
CLASS
  1
VISUALSTYLE
  2
AcDbVisualStyle
  3
ObjectDBX Classes
 90
     4095
 91
        4
280
     0
281
     0
  0
CLASS
  1
SCALE
  2
AcDbScale
  3
ObjectDBX Classes
 90
     1153
 91
        4
280
     0
281
     0
  0
CLASS
  1
DICTIONARYVAR
  2
AcDbDictionaryVar
  3
ObjectDBX Classes
 90
        0
 91
        4
280
     0
281
     0
  0
ENDSEC
  0
SECTION
  2
TABLES
  0
TABLE
  2
VPORT
  5
8
330
0
100
AcDbSymbolTable
 70
     1
  0
VPORT
  5
29
330
8
100
AcDbSymbolTableRecord
100
AcDbViewportTableRecord
  2
*Active
 70
     0
 10
0.0
 20
0.0
 11
1.0
 21
1.0
 12
67.16011249587274
 22
23.42286578660247
 13
0.0
 23
0.0
 14
0.5
 24
0.5
 15
0.5
 25
0.5
 16
0.0
 26
0.0
 36
1.0
 17
0.0
 27
0.0
 37
0.0
 40
885.0980183759181
 41
0.8825143790066055
 42
50.0
 43
0.0
 44
0.0
 50
0.0
 51
0.0
 71
     0
 72
   100
 73
     1
 74
     3
 75
     0
 76
     0
 77
     0
 78
     0
281
     0
 65
     1
110
0.0
120
0.0
130
0.0
111
1.0
121
0.0
131
0.0
112
0.0
122
1.0
132
0.0
 79
     0
146
0.0
  0
ENDTAB
  0
TABLE
  2
LTYPE
  5
5
330
0
100
AcDbSymbolTable
 70
     2
  0
LTYPE
  5
14
330
5
100
AcDbSymbolTableRecord
100
AcDbLinetypeTableRecord
  2
ByBlock
 70
     0
  3

 72
    65
 73
     0
 40
0.0
  0
LTYPE
  5
15
330
5
100
AcDbSymbolTableRecord
100
AcDbLinetypeTableRecord
  2
ByLayer
 70
     0
  3

 72
    65
 73
     0
 40
0.0
  0
LTYPE
  5
16
330
5
100
AcDbSymbolTableRecord
100
AcDbLinetypeTableRecord
  2
Continuous
 70
     0
  3
Solid line
 72
    65
 73
     0
 40
0.0
  0
LTYPE
  5
4C
330
5
100
AcDbSymbolTableRecord
100
AcDbLinetypeTableRecord
  2
DASHEDX2
 70
     0
  3
- - - - - 
 72
    65
 73
     2
 40
7.5
 49
5.0
 74
     0
 49
-2.5
 74
     0
  0
ENDTAB
  0
TABLE
  2
LAYER
  5
2
330
0
100
AcDbSymbolTable
 70
    12
  0
LAYER
  5
10
330
2
100
AcDbSymbolTableRecord
100
AcDbLayerTableRecord
  2
0
 70
     0
 62
     7
  6
Continuous
370
    -3
390
F
  0
LAYER
  5
3C
330
2
100
AcDbSymbolTableRecord
100
AcDbLayerTableRecord
  2
chh-08_Pen_No__8_Pen_No__101
 70
     0
 62
     8
  6
Continuous
370
    13
390
F
  0
LAYER
  5
3F
330
2
100
AcDbSymbolTableRecord
100
AcDbLayerTableRecord
  2
chh-254_Pen_No__254_Pen_No__102
 70
     0
 62
   254
420
 13421772
  6
Continuous
370
    13
390
F
  0
LAYER
  5
45
330
2
100
AcDbSymbolTableRecord
100
AcDbLayerTableRecord
  2
chh-09_Pen_No__9_Pen_No__2
 70
     0
 62
     8
420
  8355711
  6
Continuous
370
    15
390
F
  0
LAYER
  5
4E
330
2
100
AcDbSymbolTableRecord
100
AcDbLayerTableRecord
  2
chh-08_Pen_No__8_Pen_No__250
 70
     0
 62
   254
420
 15263976
  6
Continuous
370
    13
390
F
  0
LAYER
  5
53
330
2
100
AcDbSymbolTableRecord
100
AcDbLayerTableRecord
  2
chh-08_Pen_No__8_Pen_No__1
 70
     0
 62
     7
  6
Continuous
370
    13
390
F
  0
LAYER
  5
5A
330
2
100
AcDbSymbolTableRecord
100
AcDbLayerTableRecord
  2
chh-08_Pen_No__8_Pen_No__81
 70
     0
 62
   251
420
  6974058
  6
Continuous
370
    20
390
F
  0
LAYER
  5
63
330
2
100
AcDbSymbolTableRecord
100
AcDbLayerTableRecord
  2
chh-05_Pen_No__7_Pen_No__7
 70
     0
 62
     7
  6
Continuous
370
    18
390
F
  0
LAYER
  5
65
330
2
100
AcDbSymbolTableRecord
100
AcDbLayerTableRecord
  2
chh-07_Pen_No__7_Pen_No__7
 70
     0
 62
     7
  6
Continuous
370
    18
390
F
  0
LAYER
  5
9D
330
2
100
AcDbSymbolTableRecord
100
AcDbLayerTableRecord
  2
chh-txt_Pen_No__7_Pen_No__1
 70
     0
 62
     7
  6
Continuous
370
    13
390
F
  0
LAYER
  5
B6
330
2
100
AcDbSymbolTableRecord
100
AcDbLayerTableRecord
  2
chh-txt_Pen_No__7_Pen_No__7
 70
     0
 62
     7
  6
Continuous
370
    18
390
F
  0
LAYER
  5
FD
330
2
100
AcDbSymbolTableRecord
100
AcDbLayerTableRecord
  2
Defpoints_Pen_No__1_Pen_No__115
 70
     0
 62
   211
420
 16738047
  6
Continuous
370
    13
390
F
  0
ENDTAB
  0
TABLE
  2
STYLE
  5
3
330
0
100
AcDbSymbolTable
 70
     2
  0
STYLE
  5
11
330
3
100
AcDbSymbolTableRecord
100
AcDbTextStyleTableRecord
  2
Standard
 70
     0
 40
0.0
 41
1.0
 50
0.0
 71
     0
 42
0.2
  3
txt
  4
BIGFONT.SHX
  0
STYLE
  5
CA
330
3
100
AcDbSymbolTableRecord
100
AcDbTextStyleTableRecord
  2
GENERATED_STYLE_1
 70
     0
 40
0.0
 41
1.0
 50
0.0
 71
     0
 42
0.2
  3

  4

1001
ACAD
1000
Arial Unicode MS
1071
       34
  0
ENDTAB
  0
TABLE
  2
VIEW
  5
6
330
0
100
AcDbSymbolTable
 70
     0
  0
ENDTAB
  0
TABLE
  2
UCS
  5
7
330
0
100
AcDbSymbolTable
 70
     0
  0
ENDTAB
  0
TABLE
  2
APPID
  5
9
330
0
100
AcDbSymbolTable
 70
     1
  0
APPID
  5
12
330
9
100
AcDbSymbolTableRecord
100
AcDbRegAppTableRecord
  2
ACAD
 70
     0
  0
ENDTAB
  0
TABLE
  2
DIMSTYLE
  5
A
330
0
100
AcDbSymbolTable
 70
     1
100
AcDbDimStyleTable
  0
DIMSTYLE
105
27
330
A
100
AcDbSymbolTableRecord
100
AcDbDimStyleTableRecord
  2
Standard
 70
     0
340
11
  0
ENDTAB
  0
TABLE
  2
BLOCK_RECORD
  5
1
330
0
100
AcDbSymbolTable
 70
     2
  0
BLOCK_RECORD
  5
1F
330
1
100
AcDbSymbolTableRecord
100
AcDbBlockTableRecord
  2
*Model_Space
340
22
  0
BLOCK_RECORD
  5
1B
330
1
100
AcDbSymbolTableRecord
100
AcDbBlockTableRecord
  2
*Paper_Space
340
1E
  0
BLOCK_RECORD
  5
23
330
1
100
AcDbSymbolTableRecord
100
AcDbBlockTableRecord
  2
*Paper_Space0
340
26
  0
BLOCK_RECORD
  5
FE
330
1
100
AcDbSymbolTableRecord
100
AcDbBlockTableRecord
  2
Untitled _STORY_MARKER
340
0
  0
ENDTAB
  0
ENDSEC
  0
SECTION
  2
BLOCKS
  0
BLOCK
  5
20
330
1F
100
AcDbEntity
  8
0
100
AcDbBlockBegin
  2
*Model_Space
 70
     0
 10
0.0
 20
0.0
 30
0.0
  3
*Model_Space
  1

  0
ENDBLK
  5
21
330
1F
100
AcDbEntity
  8
0
100
AcDbBlockEnd
  0
BLOCK
  5
1C
330
1B
100
AcDbEntity
 67
     1
  8
0
100
AcDbBlockBegin
  2
*Paper_Space
 70
     0
 10
0.0
 20
0.0
 30
0.0
  3
*Paper_Space
  1

  0
ENDBLK
  5
1D
330
1B
100
AcDbEntity
 67
     1
  8
0
100
AcDbBlockEnd
  0
BLOCK
  5
24
330
23
100
AcDbEntity
  8
0
100
AcDbBlockBegin
  2
*Paper_Space0
 70
     0
 10
0.0
 20
0.0
 30
0.0
  3
*Paper_Space0
  1

  0
ENDBLK
  5
25
330
23
100
AcDbEntity
  8
0
100
AcDbBlockEnd
  0
BLOCK
  5
FF
330
FE
100
AcDbEntity
  8
0
100
AcDbBlockBegin
  2
Untitled _STORY_MARKER
 70
     0
 10
0.0
 20
0.0
 30
0.0
  3
Untitled _STORY_MARKER
  1

  0
ENDBLK
  5
100
330
FE
100
AcDbEntity
  8
0
100
AcDbBlockEnd
  0
ENDSEC
  0
SECTION
  2
ENTITIES
  0
HATCH
  5
3B
330
1F
100
AcDbEntity
  8
chh-08_Pen_No__8_Pen_No__101
  6
Continuous
100
AcDbHatch
 10
0.0
 20
0.0
 30
0.0
210
0.0
220
0.0
230
1.0
  2
SOLID
 70
     1
 71
     0
 91
        1
 92
        2
 72
     1
 73
     1
 93
       43
 10
-44.82687824315094
 20
-211.3637268861072
 42
0.0
 10
118.6482506327013
 20
-116.9813172238244
 42
0.0
 10
36.91068619477607
 20
-69.79011239268362
 42
0.0
 10
34.4393817416095
 20
-68.06843996916889
 42
0.0
 10
32.24723713045537
 20
-65.92105199391007
 42
0.0
 10
30.3553639122673
 20
-63.36862898699047
 42
0.0
 10
28.78198186033805
 20
-60.43575217726315
 42
0.0
 10
27.54224350392738
 20
-57.15066677167946
 42
0.0
 10
26.64808820111793
 20
-53.5450099385053
 42
0.0
 10
26.10812715626816
 20
-49.65350612409669
 42
0.0
 10
25.92756048941576
 20
-45.51363263749897
 42
0.0
 10
26.10812715626905
 20
-41.16525872347321
 42
0.0
 10
26.64808820111704
 20
-36.65026159987384
 42
0.0
 10
27.54224350392738
 20
-32.01212315715019
 42
0.0
 10
28.78198186033894
 20
-27.29551120396978
 42
0.0
 10
30.35536391226641
 20
-22.54584929180448
 42
0.0
 10
32.24723713045537
 20
-17.80887926129726
 42
0.0
 10
34.43938174160861
 20
-13.13022072333336
 42
0.0
 10
36.91068619477518
 20
-8.554931717248525
 42
0.0
 10
39.6373504771181
 20
-4.127074777278139
 42
0.0
 10
42.59311532105122
 20
0.1107074137324249
 42
0.0
 10
45.74951509534016
 20
4.117602696676714
 42
0.0
 10
49.07615194469957
 20
7.855022479588247
 42
0.0
 10
52.54098853774165
 20
11.28697336687578
 42
0.0
 10
56.11065660400412
 20
14.38040379539973
 42
0.0
 10
59.75077828862992
 20
17.10552233909224
 42
0.0
 10
63.42629722990419
 20
19.43608461667656
 42
0.0
 10
67.10181617117756
 20
21.34964603940426
 42
0.0
 10
70.74193785580513
 20
22.82777796471558
 42
0.0
 10
74.31160592206672
 20
23.85624517414042
 42
0.0
 10
77.7764425151088
 20
24.42514296623488
 42
0.0
 10
81.10307936446732
 20
24.52899254426966
 42
0.0
 10
84.25947913875804
 20
24.16679378003905
 42
0.0
 10
87.21524398269027
 20
23.34203484563979
 42
0.0
 10
89.9419082650323
 20
22.06265862046941
 42
0.0
 10
171.6794727029584
 20
-25.12854621067162
 42
0.0
 10
171.6794727029584
 20
163.6362731138929
 42
0.0
 10
105.5821499516704
 20
125.4749660307228
 42
0.0148728837428135
 10
64.53033476746279
 20
83.03978497084618
 42
0.0
 10
60.20020774854081
 20
85.53978497084613
 42
0.0
 10
55.87008072961792
 20
83.03978497084574
 42
0.0
 10
55.87008072961792
 20
73.41241435369328
 42
0.0424771629848438
 10
-44.82687824315094
 20
-61.51331606148924
 42
0.0
 97
        0
 75
     0
 76
     1
 98
        0
  0
HATCH
  5
3D
330
1F
100
AcDbEntity
  8
chh-08_Pen_No__8_Pen_No__101
  6
Continuous
100
AcDbHatch
 10
0.0
 20
0.0
 30
0.0
210
0.0
220
0.0
230
1.0
  2
SOLID
 70
     1
 71
     0
 91
        1
 92
        2
 72
     0
 73
     1
 93
       66
 10
69.95277155287268
 20
-88.86696926876702
 10
67.48146709970611
 20
-87.14529684525229
 10
65.28932248855286
 20
-84.99790886999348
 10
63.39744927036302
 20
-82.44548586307387
 10
61.82406721843466
 20
-79.51260905334657
 10
60.58432886202399
 20
-76.22752364776287
 10
59.69017355921454
 20
-72.62186681458871
 10
59.15021251436477
 20
-68.73036300018009
 10
58.96964584751237
 20
-64.59048951358237
 10
59.15021251436566
 20
-60.24211559955661
 10
59.69017355921454
 20
-55.72711847595724
 10
60.58432886202399
 20
-51.08898003323359
 10
61.82406721843554
 20
-46.37236808005319
 10
63.39744927036213
 20
-41.62270616788788
 10
65.28932248855286
 20
-36.88573613738066
 10
67.48146709970521
 20
-32.20707759941676
 10
69.95277155287178
 20
-27.63178859333182
 10
72.67943583521381
 20
-23.20393165336154
 10
75.63520067914693
 20
-18.96614946235098
 10
78.79160045343676
 20
-14.95925417940669
 10
82.11823730279528
 20
-11.22183439649516
 10
85.58307389583825
 20
-7.789883509207618
 10
89.15274196209984
 20
-4.696453080683671
 10
92.79286364672652
 20
-1.971334536991165
 10
96.4683825880008
 20
0.3592277405931599
 10
100.1439015292742
 20
2.272789163320854
 10
103.7840232139
 20
3.750921088631953
 10
107.3536912801633
 20
4.779388298057019
 10
110.8185278732045
 20
5.348286090151477
 10
114.1451647225639
 20
5.452135668186364
 10
117.3015644968538
 20
5.089936903955428
 10
120.257329340786
 20
4.265177969556389
 10
122.9839936231289
 20
2.985801744386007
 10
89.9419082650323
 20
22.06265862046941
 10
87.21524398269027
 20
23.34203484563979
 10
84.25947913875804
 20
24.16679378003905
 10
81.10307936446732
 20
24.52899254426966
 10
77.7764425151088
 20
24.42514296623488
 10
74.31160592206672
 20
23.85624517414042
 10
70.74193785580513
 20
22.82777796471558
 10
67.10181617117756
 20
21.34964603940415
 10
63.42629722990419
 20
19.43608461667667
 10
59.75077828862992
 20
17.10552233909224
 10
56.11065660400412
 20
14.38040379539984
 10
52.54098853774165
 20
11.28697336687578
 10
49.07615194469957
 20
7.855022479588247
 10
45.74951509534016
 20
4.117602696676825
 10
42.59311532105122
 20
0.1107074137324249
 10
39.6373504771181
 20
-4.127074777278139
 10
36.91068619477518
 20
-8.554931717248525
 10
34.43938174160861
 20
-13.13022072333336
 10
32.24723713045537
 20
-17.80887926129726
 10
30.35536391226641
 20
-22.54584929180437
 10
28.78198186033894
 20
-27.29551120396978
 10
27.54224350392738
 20
-32.01212315715019
 10
26.64808820111704
 20
-36.65026159987372
 10
26.10812715626905
 20
-41.16525872347321
 10
25.92756048941576
 20
-45.51363263749897
 10
26.10812715626816
 20
-49.6535061240968
 10
26.64808820111793
 20
-53.5450099385053
 10
27.54224350392738
 20
-57.15066677167946
 10
28.78198186033805
 20
-60.43575217726315
 10
30.3553639122673
 20
-63.36862898699047
 10
32.24723713045537
 20
-65.92105199391007
 10
34.4393817416095
 20
-68.06843996916889
 10
36.91068619477607
 20
-69.79011239268362
 97
        0
 75
     0
 76
     1
 98
        0
  0
HATCH
  5
3E
330
1F
100
AcDbEntity
  8
chh-254_Pen_No__254_Pen_No__102
  6
Continuous
100
AcDbHatch
 10
0.0
 20
0.0
 30
0.0
210
0.0
220
0.0
230
1.0
  2
SOLID
 70
     1
 71
     0
 91
        1
 92
        2
 72
     1
 73
     1
 93
        4
 10
308.3141635759962
 20
358.306118291089
 42
0.0049226397149588
 10
308.5687429105028
 20
384.1635017461068
 42
0.0
 10
267.7114637842403
 20
360.5745406442039
 42
0.0
 10
267.7114637842403
 20
334.8641386364934
 42
0.0
 97
        0
 75
     0
 76
     1
 98
        0
  0
HATCH
  5
40
330
1F
100
AcDbEntity
  8
chh-254_Pen_No__254_Pen_No__102
  6
Continuous
100
AcDbHatch
 10
0.0
 20
0.0
 30
0.0
210
0.0
220
0.0
230
1.0
  2
SOLID
 70
     1
 71
     0
 91
        1
 92
        2
 72
     0
 73
     1
 93
        4
 10
207.0896855193289
 20
299.8641386364931
 10
207.0896855193289
 20
325.5745406442043
 10
-120.9326287887767
 20
136.1907691782152
 10
-120.9326287887767
 20
110.4803671705043
 97
        0
 75
     0
 76
     1
 98
        0
  0
HATCH
  5
41
330
1F
100
AcDbEntity
  8
chh-254_Pen_No__254_Pen_No__102
  6
Continuous
100
AcDbHatch
 10
0.0
 20
0.0
 30
0.0
210
0.0
220
0.0
230
1.0
  2
SOLID
 70
     1
 71
     0
 91
        1
 92
        2
 72
     1
 73
     1
 93
       14
 10
-181.5544070536872
 20
-334.2949143609922
 42
0.0
 10
-181.5544070536872
 20
-276.6154244358395
 42
0.0
 10
-195.2772863678701
 20
-284.5383325019393
 42
0.0
 10
-199.607413386792
 20
-282.0383325019394
 42
0.0
 10
-203.9375404057132
 20
-284.5383325019387
 42
0.0
 10
-203.9375404057132
 20
-289.5383325019386
 42
0.0
 10
-241.8145738061058
 20
-311.4066479317605
 42
0.0
 10
-252.20687865152
 20
-305.406647931761
 42
0.0
 10
-252.20687865152
 20
34.68914367458342
 42
0.0
 10
-181.5544070536872
 20
75.48036717050421
 42
0.0
 10
-181.5544070536872
 20
101.1907691782148
 42
0.0
 10
-282.7008698244503
 20
42.79383166993689
 42
-0.0426246365291311
 10
-301.7200939917422
 20
-179.9021307174232
 42
0.059837146816093
 10
-313.456653491625
 20
-410.4487118486515
 42
0.0
 97
        0
 75
     0
 76
     1
 98
        0
  0
HATCH
  5
42
330
1F
100
AcDbEntity
  8
chh-254_Pen_No__254_Pen_No__102
  6
Continuous
100
AcDbHatch
 10
0.0
 20
0.0
 30
0.0
210
0.0
220
0.0
230
1.0
  2
SOLID
 70
     1
 71
     0
 91
        1
 92
        2
 72
     1
 73
     1
 93
       10
 10
156.7460174980721
 20
-138.9770731790695
 42
0.0
 10
118.6482506327013
 20
-116.9813172238243
 42
0.0
 10
-44.82687824315094
 20
-211.3637268861072
 42
0.0
 10
-44.82687824315094
 20
-61.51331606148946
 42
0.010133914352061
 10
-65.37347580020318
 20
-96.1058006078923
 42
0.0
 10
-69.70360281912518
 20
-93.60580060789236
 42
0.0
 10
-74.03372983804806
 20
-96.1058006078923
 42
0.0
 10
-74.03372983804806
 20
-111.7084667118129
 42
0.027602814664242
 10
-120.9326287887767
 20
-210.6769665548171
 42
0.0
 10
-120.9326287887767
 20
-299.2949143609927
 42
0.0
 97
        0
 75
     0
 76
     1
 98
        0
  0
HATCH
  5
43
330
1F
100
AcDbEntity
  8
chh-254_Pen_No__254_Pen_No__102
  6
Continuous
100
AcDbHatch
 10
0.0
 20
0.0
 30
0.0
210
0.0
220
0.0
230
1.0
  2
SOLID
 70
     1
 71
     0
 91
        1
 92
        2
 72
     1
 73
     1
 93
       48
 10
289.549518743209
 20
161.467539358744
 42
0.0218550976109803
 10
304.048943896215
 20
275.3006711045714
 42
0.0106864703825703
 10
267.7114637842403
 20
253.3987684607277
 42
0.0
 10
267.7114637842403
 20
88.67292758866463
 42
0.0
 10
228.7403206139415
 20
66.17292758866455
 42
0.0
 10
207.0896855193289
 20
78.67292758866462
 42
0.0
 10
207.0896855193289
 20
211.8515331661563
 42
0.0039911264507764
 10
194.4341453351296
 20
202.3136371790987
 42
0.0
 10
190.1040183162085
 20
204.8136371790985
 42
0.0
 10
185.7738912972821
 20
202.3136371790971
 42
0.0
 10
185.7738912972821
 20
195.6015731941551
 42
0.026848313756461
 10
105.5821499516695
 20
125.4749660307223
 42
0.0
 10
171.6794727029584
 20
163.6362731138929
 42
0.0
 10
171.6794727029584
 20
-25.12854621067173
 42
0.0
 10
250.8216654768318
 20
-70.82131251292456
 42
0.0
 10
251.1408307446642
 20
-71.01007312260299
 42
0.0
 10
251.4560603535789
 20
-71.20554173272309
 42
0.0
 10
251.7673080711728
 20
-71.40768967534383
 42
0.0
 10
252.0745282490357
 20
-71.61648730291603
 42
0.0
 10
252.3776758294473
 20
-71.83190399262995
 42
0.0
 10
252.6767063519856
 20
-72.05390815090695
 42
0.0
 10
252.9715759600496
 20
-72.2824672180331
 42
0.0
 10
253.2622414072835
 20
-72.51754767293394
 42
0.0
 10
253.5486600639289
 20
-72.75911503809118
 42
0.0
 10
253.8307899230713
 20
-73.00713388459945
 42
0.0
 10
254.1085896068053
 20
-73.26156783736182
 42
0.0
 10
254.382018372296
 20
-73.5223795804254
 42
0.0
 10
254.6510361177609
 20
-73.78953086245332
 42
0.0
 10
254.9156033883492
 20
-74.06298250233534
 42
0.0
 10
255.1756813819314
 20
-74.34269439493457
 42
0.0
 10
255.4312319547828
 20
-74.62862551696858
 42
0.0
 10
255.6822176271828
 20
-74.92073393302645
 42
0.0
 10
255.9286015889134
 20
-75.21897680171907
 42
0.0
 10
256.1703477046523
 20
-75.52331038196236
 42
0.0
 10
256.4074205192807
 20
-75.83369003939266
 42
0.0
 10
256.6397852630745
 20
-76.15007025291243
 42
0.0
 10
256.8674078568091
 20
-76.47240462136695
 42
0.0
 10
257.0902549167557
 20
-76.80064587034907
 42
0.0
 10
257.3082937595765
 20
-77.13474585913393
 42
0.0
 10
257.5214924071252
 20
-77.47465558773759
 42
0.0
 10
257.7298195911212
 20
-77.82032520410442
 42
0.0
 10
257.9332447577547
 20
-78.17170401141904
 42
0.0
 10
258.1317380721574
 20
-78.52874047554081
 42
0.0
 10
258.3252704227729
 20
-78.8913822325621
 42
0.0
 10
258.5138134256401
 20
-79.25957609648837
 42
0.0
 10
258.6973394285451
 20
-79.63326806703886
 42
0.0
 10
258.8758215150821
 20
-80.0124033375651
 42
0.0
 10
277.8129592433262
 20
-69.07904177248192
 42
-0.0598371468160926
 97
        0
 75
     0
 76
     1
 98
        0
  0
HATCH
  5
44
330
1F
100
AcDbEntity
  8
chh-09_Pen_No__9_Pen_No__2
  6
Continuous
100
AcDbHatch
 10
0.0
 20
0.0
 30
0.0
210
0.0
220
0.0
230
1.0
  2
SOLID
 70
     1
 71
     0
 91
        1
 92
        2
 72
     0
 73
     1
 93
        3
 10
251.1319791064161
 20
401.5190685631495
 10
251.131979106417
 20
404.3190673607968
 10
242.7319827134748
 20
402.919067961975
 97
        0
 75
     0
 76
     1
 98
        0
  0
HATCH
  5
46
330
1F
100
AcDbEntity
  8
chh-09_Pen_No__9_Pen_No__2
  6
Continuous
100
AcDbHatch
 10
0.0
 20
0.0
 30
0.0
210
0.0
220
0.0
230
1.0
  2
SOLID
 70
     1
 71
     0
 91
        1
 92
        2
 72
     0
 73
     1
 93
        3
 10
229.4464789002217
 20
238.9975538274064
 10
229.4464789002226
 20
241.7975526250538
 10
221.0464825072821
 20
240.3975532262319
 97
        0
 75
     0
 76
     1
 98
        0
  0
HATCH
  5
47
330
1F
100
AcDbEntity
  8
chh-09_Pen_No__9_Pen_No__2
  6
Continuous
100
AcDbHatch
 10
0.0
 20
0.0
 30
0.0
210
0.0
220
0.0
230
1.0
  2
SOLID
 70
     1
 71
     0
 91
        1
 92
        2
 72
     0
 73
     1
 93
        3
 10
273.8031826243447
 20
180.8837984251766
 10
273.8031826243456
 20
183.6837972228238
 10
265.4031862314043
 20
182.2837978240021
 97
        0
 75
     0
 76
     1
 98
        0
  0
HATCH
  5
48
330
1F
100
AcDbEntity
  8
chh-09_Pen_No__9_Pen_No__2
  6
Continuous
100
AcDbHatch
 10
0.0
 20
0.0
 30
0.0
210
0.0
220
0.0
230
1.0
  2
SOLID
 70
     1
 71
     0
 91
        1
 92
        2
 72
     0
 73
     1
 93
        3
 10
289.5744629601197
 20
86.32582065248961
 10
289.5744629601206
 20
89.12581945013687
 10
281.1744665671802
 20
87.72582005131501
 97
        0
 75
     0
 76
     1
 98
        0
  0
HATCH
  5
49
330
1F
100
AcDbEntity
  8
chh-09_Pen_No__9_Pen_No__2
  6
Continuous
100
AcDbHatch
 10
0.0
 20
0.0
 30
0.0
210
0.0
220
0.0
230
1.0
  2
SOLID
 70
     1
 71
     0
 91
        1
 92
        2
 72
     0
 73
     1
 93
        3
 10
180.1612175954419
 20
43.97172254655912
 10
180.1612175954427
 20
46.77172134420638
 10
171.7612212025032
 20
45.37172194538452
 97
        0
 75
     0
 76
     1
 98
        0
  0
HATCH
  5
4A
330
1F
100
AcDbEntity
  8
chh-09_Pen_No__9_Pen_No__2
  6
Continuous
100
AcDbHatch
 10
0.0
 20
0.0
 30
0.0
210
0.0
220
0.0
230
1.0
  2
SOLID
 70
     1
 71
     0
 91
        1
 92
        2
 72
     0
 73
     1
 93
        3
 10
87.91272327872753
 20
-21.03688504748258
 10
87.91272327872841
 20
-18.23688624983533
 10
79.5127268857871
 20
-19.63688564865706
 97
        0
 75
     0
 76
     1
 98
        0
  0
HATCH
  5
4B
330
1F
100
AcDbEntity
  8
chh-09_Pen_No__9_Pen_No__2
  6
Continuous
100
AcDbHatch
 10
0.0
 20
0.0
 30
0.0
210
0.0
220
0.0
230
1.0
  2
SOLID
 70
     1
 71
     0
 91
        1
 92
        2
 72
     0
 73
     1
 93
        3
 10
260.9890258977747
 20
-135.2944344405442
 10
260.9890258977755
 20
-132.494435642897
 10
252.5890295048343
 20
-133.8944350417188
 97
        0
 75
     0
 76
     1
 98
        0
  0
LINE
  5
4D
330
1F
100
AcDbEntity
  8
chh-08_Pen_No__8_Pen_No__250
  6
DASHEDX2
100
AcDbLine
 10
171.6794727029584
 20
-86.36372688610727
 30
0.0
 11
118.6482506327013
 21
-116.9813172238244
 31
0.0
  0
LINE
  5
4F
330
1F
100
AcDbEntity
  8
chh-08_Pen_No__8_Pen_No__250
  6
DASHEDX2
100
AcDbLine
 10
-44.82687824315094
 20
-61.51331606148902
 30
0.0
 11
-44.82687824315094
 21
38.63627311389273
 31
0.0
  0
LINE
  5
50
330
1F
100
AcDbEntity
  8
chh-08_Pen_No__8_Pen_No__250
  6
DASHEDX2
100
AcDbLine
 10
-44.82687824315094
 20
38.63627311389273
 30
0.0
 11
105.5821499516695
 21
125.4749660307225
 31
0.0
  0
LINE
  5
51
330
1F
100
AcDbEntity
  8
chh-08_Pen_No__8_Pen_No__250
  6
DASHEDX2
100
AcDbLine
 10
171.6794727029584
 20
-25.12854621067162
 30
0.0
 11
171.6794727029584
 21
-86.36372688610727
 31
0.0
  0
LINE
  5
52
330
1F
100
AcDbEntity
  8
chh-08_Pen_No__8_Pen_No__1
  6
Continuous
100
AcDbLine
 10
-282.7008698244503
 20
42.79383166993678
 30
0.0
 11
-181.5544070536864
 21
101.1907691782152
 31
0.0
  0
LINE
  5
54
330
1F
100
AcDbEntity
  8
chh-08_Pen_No__8_Pen_No__1
  6
Continuous
100
AcDbLine
 10
-120.9326287887767
 20
136.1907691782152
 30
0.0
 11
207.0896855193289
 21
325.5745406442043
 31
0.0
  0
LINE
  5
55
330
1F
100
AcDbEntity
  8
chh-08_Pen_No__8_Pen_No__1
  6
Continuous
100
AcDbLine
 10
267.7114637842403
 20
360.5745406442039
 30
0.0
 11
308.5687429105028
 21
384.1635017461069
 31
0.0
  0
LINE
  5
56
330
1F
100
AcDbEntity
  8
chh-08_Pen_No__8_Pen_No__1
  6
Continuous
100
AcDbLine
 10
-313.456653491625
 20
-410.4487118486515
 30
0.0
 11
-181.5544070536872
 21
-334.2949143609922
 31
0.0
  0
LINE
  5
57
330
1F
100
AcDbEntity
  8
chh-08_Pen_No__8_Pen_No__1
  6
Continuous
100
AcDbLine
 10
-120.9326287887758
 20
-299.2949143609921
 30
0.0
 11
156.7460174980721
 21
-138.9770731790695
 31
0.0
  0
LINE
  5
58
330
1F
100
AcDbEntity
  8
chh-08_Pen_No__8_Pen_No__1
  6
Continuous
100
AcDbLine
 10
258.8758215150821
 20
-80.01240333756476
 30
0.0
 11
277.8129592433262
 21
-69.07904177248182
 31
0.0
  0
LINE
  5
59
330
1F
100
AcDbEntity
  8
chh-08_Pen_No__8_Pen_No__81
  6
Continuous
100
AcDbLine
 10
-266.8316701699268
 20
210.4106719558671
 30
0.0
 11
-149.9182406590268
 21
187.9106719558673
 31
0.0
  0
LINE
  5
5B
330
1F
100
AcDbEntity
  8
chh-08_Pen_No__8_Pen_No__81
  6
Continuous
100
AcDbLine
 10
-227.8605269996262
 20
232.9106719558672
 30
0.0
 11
-188.8893838293265
 21
165.4106719558672
 31
0.0
  0
LINE
  5
5C
330
1F
100
AcDbEntity
  8
chh-08_Pen_No__8_Pen_No__81
  6
Continuous
100
AcDbLine
 10
-142.5832638833876
 20
159.3862231476625
 30
0.0
 11
-159.9037719590764
 21
124.3862231476626
 31
0.0
  0
LINE
  5
5D
330
1F
100
AcDbEntity
  8
chh-08_Pen_No__8_Pen_No__81
  6
Continuous
100
AcDbLine
 10
-120.9326287887767
 20
146.8862231476625
 30
0.0
 11
-181.5544070536872
 21
136.8862231476626
 31
0.0
  0
LINE
  5
5E
330
1F
100
AcDbEntity
  8
chh-08_Pen_No__8_Pen_No__81
  6
Continuous
100
AcDbLine
 10
267.7114637842403
 20
371.2699946136518
 30
0.0
 11
207.0896855193289
 21
361.2699946136517
 31
0.0
  0
LINE
  5
5F
330
1F
100
AcDbEntity
  8
chh-08_Pen_No__8_Pen_No__81
  6
Continuous
100
AcDbLine
 10
246.0608286896304
 20
383.7699946136518
 30
0.0
 11
228.7403206139415
 21
348.7699946136518
 31
0.0
  0
LINE
  5
60
330
1F
100
AcDbEntity
  8
chh-08_Pen_No__8_Pen_No__81
  6
Continuous
100
AcDbLine
 10
238.7258519139903
 20
412.2944434218564
 30
0.0
 11
121.8124224030903
 21
434.7944434218564
 31
0.0
  0
LINE
  5
61
330
1F
100
AcDbEntity
  8
chh-08_Pen_No__8_Pen_No__81
  6
Continuous
100
AcDbLine
 10
160.78356557339
 20
457.2944434218564
 30
0.0
 11
199.7547087436915
 21
389.7944434218564
 31
0.0
  0
LINE
  5
62
330
1F
100
AcDbEntity
  8
chh-05_Pen_No__7_Pen_No__7
  6
Continuous
100
AcDbLine
 10
-252.20687865152
 20
-305.4066479317601
 30
0.0
 11
-241.8145738061049
 21
-311.4066479317601
 31
0.0
  0
LINE
  5
64
330
1F
100
AcDbEntity
  8
chh-07_Pen_No__7_Pen_No__7
  6
Continuous
100
AcDbLine
 10
-241.8145738061049
 20
-311.4066479317601
 30
0.0
 11
-241.8145738061049
 21
28.68914367458342
 31
0.0
  0
LINE
  5
66
330
1F
100
AcDbEntity
  8
chh-07_Pen_No__7_Pen_No__7
  6
Continuous
100
AcDbLine
 10
-241.8145738061049
 20
28.68914367458342
 30
0.0
 11
-252.20687865152
 21
34.68914367458342
 31
0.0
  0
LINE
  5
67
330
1F
100
AcDbEntity
  8
chh-07_Pen_No__7_Pen_No__7
  6
Continuous
100
AcDbLine
 10
-252.20687865152
 20
34.68914367458342
 30
0.0
 11
-252.20687865152
 21
-305.4066479317601
 31
0.0
  0
LINE
  5
68
330
1F
100
AcDbEntity
  8
chh-07_Pen_No__7_Pen_No__7
  6
Continuous
100
AcDbLine
 10
-241.8145738061049
 20
28.68914367458342
 30
0.0
 11
-203.9375404057132
 21
50.55745910440456
 31
0.0
  0
LINE
  5
69
330
1F
100
AcDbEntity
  8
chh-07_Pen_No__7_Pen_No__7
  6
Continuous
100
AcDbLine
 10
-195.2772863678692
 20
55.55745910440457
 30
0.0
 11
-74.03372983804806
 21
125.5574591044045
 31
0.0
  0
LINE
  5
6A
330
1F
100
AcDbEntity
  8
chh-07_Pen_No__7_Pen_No__7
  6
Continuous
100
AcDbLine
 10
-65.37347580020318
 20
130.5574591044045
 30
0.0
 11
55.87008072961792
 21
200.5574591044042
 31
0.0
  0
LINE
  5
6B
330
1F
100
AcDbEntity
  8
chh-07_Pen_No__7_Pen_No__7
  6
Continuous
100
AcDbLine
 10
64.53033476746191
 20
205.5574591044043
 30
0.0
 11
185.773891297283
 21
275.5574591044042
 31
0.0
  0
LINE
  5
6C
330
1F
100
AcDbEntity
  8
chh-07_Pen_No__7_Pen_No__7
  6
Continuous
100
AcDbLine
 10
194.4341453351279
 20
280.5574591044042
 30
0.0
 11
315.677701864949
 21
350.557459104404
 31
0.0
  0
LINE
  5
6D
330
1F
100
AcDbEntity
  8
chh-07_Pen_No__7_Pen_No__7
  6
Continuous
100
AcDbLine
 10
324.3379559027929
 20
355.5574591044041
 30
0.0
 11
338.8314263448968
 21
363.9252681656445
 31
0.0
  0
LINE
  5
6E
330
1F
100
AcDbEntity
  8
chh-07_Pen_No__7_Pen_No__7
  6
Continuous
100
AcDbLine
 10
-252.20687865152
 20
34.68914367458342
 30
0.0
 11
328.4391214994835
 21
369.9252681656445
 31
0.0
  0
LINE
  5
6F
330
1F
100
AcDbEntity
  8
chh-07_Pen_No__7_Pen_No__7
  6
Continuous
100
AcDbLine
 10
-65.37347580020318
 20
130.5574591044045
 30
0.0
 11
-65.37347580020318
 21
-96.10580060789242
 31
0.0
  0
LINE
  5
70
330
1F
100
AcDbEntity
  8
chh-07_Pen_No__7_Pen_No__7
  6
Continuous
100
AcDbLine
 10
-74.03372983804806
 20
125.5574591044045
 30
0.0
 11
-74.03372983804806
 21
-111.7084667118133
 31
0.0
  0
LINE
  5
71
330
1F
100
AcDbEntity
  8
chh-07_Pen_No__7_Pen_No__7
  6
Continuous
100
AcDbLine
 10
-69.70360281912518
 20
133.0574591044046
 30
0.0
 11
-69.70360281912518
 21
-93.60580060789236
 31
0.0
  0
LINE
  5
72
330
1F
100
AcDbEntity
  8
chh-07_Pen_No__7_Pen_No__7
  6
Continuous
100
AcDbLine
 10
64.53033476746191
 20
205.5574591044044
 30
0.0
 11
64.53033476746191
 21
83.03978497084519
 31
0.0
  0
LINE
  5
73
330
1F
100
AcDbEntity
  8
chh-07_Pen_No__7_Pen_No__7
  6
Continuous
100
AcDbLine
 10
55.87008072961792
 20
200.5574591044044
 30
0.0
 11
55.87008072961792
 21
73.41241435369305
 31
0.0
  0
LINE
  5
74
330
1F
100
AcDbEntity
  8
chh-07_Pen_No__7_Pen_No__7
  6
Continuous
100
AcDbLine
 10
60.20020774853992
 20
208.0574591044045
 30
0.0
 11
60.20020774854169
 21
85.53978497084647
 31
0.0
  0
LINE
  5
75
330
1F
100
AcDbEntity
  8
chh-07_Pen_No__7_Pen_No__7
  6
Continuous
100
AcDbLine
 10
-195.2772863678692
 20
55.55745910440446
 30
0.0
 11
-195.2772863678701
 21
-284.5383325019392
 31
0.0
  0
LINE
  5
76
330
1F
100
AcDbEntity
  8
chh-07_Pen_No__7_Pen_No__7
  6
Continuous
100
AcDbLine
 10
-203.9375404057132
 20
50.55745910440434
 30
0.0
 11
-203.9375404057132
 21
-289.538332501939
 31
0.0
  0
LINE
  5
77
330
1F
100
AcDbEntity
  8
chh-07_Pen_No__7_Pen_No__7
  6
Continuous
100
AcDbLine
 10
-199.6074133867912
 20
58.05745910440463
 30
0.0
 11
-199.6074133867912
 21
-282.0383325019388
 31
0.0
  0
LINE
  5
78
330
1F
100
AcDbEntity
  8
chh-05_Pen_No__7_Pen_No__7
  6
Continuous
100
AcDbLine
 10
-188.8893838293265
 20
165.4106719558672
 30
0.0
 11
-188.8893838293265
 21
96.95591836229977
 31
0.0
  0
LINE
  5
79
330
1F
100
AcDbEntity
  8
chh-05_Pen_No__7_Pen_No__7
  6
Continuous
100
AcDbLine
 10
-149.9182406590268
 20
187.9106719558673
 30
0.0
 11
-149.9182406590268
 21
155.1513723317478
 31
0.0
  0
LINE
  5
7A
330
1F
100
AcDbEntity
  8
chh-05_Pen_No__7_Pen_No__7
  6
Continuous
100
AcDbLine
 10
-266.8316701699268
 20
210.4106719558671
 30
0.0
 11
-266.8316701699268
 21
51.95591836230018
 31
0.0
  0
LINE
  5
7B
330
1F
100
AcDbEntity
  8
chh-05_Pen_No__7_Pen_No__7
  6
Continuous
100
AcDbLine
 10
-120.9326287887767
 20
146.8862231476625
 30
0.0
 11
-120.9326287887767
 21
110.4803671705044
 31
0.0
  0
LINE
  5
7C
330
1F
100
AcDbEntity
  8
chh-05_Pen_No__7_Pen_No__7
  6
Continuous
100
AcDbLine
 10
-159.9037719590764
 20
124.3862231476626
 30
0.0
 11
-159.9037719590764
 21
87.98036717050417
 31
0.0
  0
LINE
  5
7D
330
1F
100
AcDbEntity
  8
chh-05_Pen_No__7_Pen_No__7
  6
Continuous
100
AcDbLine
 10
-181.5544070536872
 20
136.8862231476626
 30
0.0
 11
-181.5544070536872
 21
75.48036717050421
 31
0.0
  0
LINE
  5
7E
330
1F
100
AcDbEntity
  8
chh-05_Pen_No__7_Pen_No__7
  6
Continuous
100
AcDbLine
 10
197.7904434065755
 20
-162.6740835260775
 30
0.0
 11
36.91068619477607
 21
-69.79011239268362
 31
0.0
  0
LINE
  5
7F
330
1F
100
AcDbEntity
  8
chh-05_Pen_No__7_Pen_No__7
  6
Continuous
100
AcDbLine
 10
250.8216654768318
 20
-70.82131251292445
 30
0.0
 11
89.9419082650323
 21
22.06265862046941
 31
0.0
  0
LINE
  5
80
330
1F
100
AcDbEntity
  8
chh-05_Pen_No__7_Pen_No__7
  6
Continuous
100
AcDbLine
 10
118.6482506327013
 20
-116.9813172238244
 30
0.0
 11
-44.82687824315094
 21
-211.3637268861072
 31
0.0
  0
LINE
  5
81
330
1F
100
AcDbEntity
  8
chh-05_Pen_No__7_Pen_No__7
  6
Continuous
100
AcDbLine
 10
-44.82687824315094
 20
-211.3637268861072
 30
0.0
 11
-44.82687824315094
 21
-61.51331606148902
 31
0.0
  0
LINE
  5
82
330
1F
100
AcDbEntity
  8
chh-07_Pen_No__7_Pen_No__7
  6
Continuous
100
AcDbLine
 10
105.5821499516695
 20
125.4749660307225
 30
0.0
 11
171.6794727029584
 21
163.6362731138929
 31
0.0
  0
LINE
  5
83
330
1F
100
AcDbEntity
  8
chh-05_Pen_No__7_Pen_No__7
  6
Continuous
100
AcDbLine
 10
171.6794727029584
 20
163.6362731138929
 30
0.0
 11
171.6794727029584
 21
-25.12854621067162
 31
0.0
  0
LINE
  5
84
330
1F
100
AcDbEntity
  8
chh-07_Pen_No__7_Pen_No__7
  6
Continuous
100
AcDbLine
 10
-241.8145738061049
 20
-311.4066479317601
 30
0.0
 11
-203.9375404057141
 21
-289.5383325019393
 31
0.0
  0
LINE
  5
85
330
1F
100
AcDbEntity
  8
chh-07_Pen_No__7_Pen_No__7
  6
Continuous
100
AcDbLine
 10
-195.2772863678701
 20
-284.5383325019393
 30
0.0
 11
-136.1545643735645
 21
-250.4038130433045
 31
0.0
  0
LINE
  5
86
330
1F
100
AcDbEntity
  8
chh-05_Pen_No__7_Pen_No__7
  6
Continuous
100
AcDbLine
 10
267.7114637842403
 20
371.2699946136518
 30
0.0
 11
267.7114637842403
 21
334.8641386364936
 31
0.0
  0
LINE
  5
87
330
1F
100
AcDbEntity
  8
chh-05_Pen_No__7_Pen_No__7
  6
Continuous
100
AcDbLine
 10
228.7403206139415
 20
348.7699946136518
 30
0.0
 11
228.7403206139415
 21
312.3641386364935
 31
0.0
  0
LINE
  5
88
330
1F
100
AcDbEntity
  8
chh-05_Pen_No__7_Pen_No__7
  6
Continuous
100
AcDbLine
 10
207.0896855193289
 20
361.2699946136517
 30
0.0
 11
207.0896855193289
 21
299.8641386364933
 31
0.0
  0
LINE
  5
89
330
1F
100
AcDbEntity
  8
chh-05_Pen_No__7_Pen_No__7
  6
Continuous
100
AcDbLine
 10
-241.8145738061058
 20
-311.4066479317605
 30
0.0
 11
-252.2068786515209
 21
-305.4066479317605
 31
0.0
  0
LINE
  5
8A
330
1F
100
AcDbEntity
  8
chh-07_Pen_No__7_Pen_No__7
  6
Continuous
100
AcDbLine
 10
-241.8145738061058
 20
-311.4066479317605
 30
0.0
 11
-203.9375404057141
 21
-289.5383325019392
 31
0.0
  0
LINE
  5
8B
330
1F
100
AcDbEntity
  8
chh-07_Pen_No__7_Pen_No__7
  6
Continuous
100
AcDbLine
 10
194.4341453351279
 20
280.5574591044045
 30
0.0
 11
194.4341453351288
 21
202.3136371790974
 31
0.0
  0
LINE
  5
8C
330
1F
100
AcDbEntity
  8
chh-07_Pen_No__7_Pen_No__7
  6
Continuous
100
AcDbLine
 10
185.773891297283
 20
275.5574591044045
 30
0.0
 11
185.7738912972821
 21
195.6015731941552
 31
0.0
  0
LINE
  5
8D
330
1F
100
AcDbEntity
  8
chh-07_Pen_No__7_Pen_No__7
  6
Continuous
100
AcDbLine
 10
190.104018316205
 20
283.0574591044046
 30
0.0
 11
190.1040183162059
 21
204.8136371790982
 31
0.0
  0
LINE
  5
8E
330
1F
100
AcDbEntity
  8
chh-07_Pen_No__7_Pen_No__7
  6
Continuous
100
AcDbLine
 10
324.3379559027929
 20
355.5574591044042
 30
0.0
 11
324.3379559027929
 21
286.6322272823001
 31
0.0
  0
LINE
  5
8F
330
1F
100
AcDbEntity
  8
chh-07_Pen_No__7_Pen_No__7
  6
Continuous
100
AcDbLine
 10
320.007828883871
 20
358.0574591044042
 30
0.0
 11
320.0078288838719
 21
289.1322272823011
 31
0.0
  0
LINE
  5
90
330
1F
100
AcDbEntity
  8
chh-07_Pen_No__7_Pen_No__7
  6
Continuous
100
AcDbLine
 10
315.677701864949
 20
350.5574591044042
 30
0.0
 11
315.677701864949
 21
281.8715680995309
 31
0.0
  0
LINE
  5
91
330
1F
100
AcDbEntity
  8
chh-07_Pen_No__7_Pen_No__7
  6
Continuous
100
AcDbLine
 10
338.8314263448968
 20
363.9252681656445
 30
0.0
 11
328.4391214994835
 21
369.9252681656445
 31
0.0
  0
LINE
  5
92
330
1F
100
AcDbEntity
  8
chh-07_Pen_No__7_Pen_No__7
  6
Continuous
100
AcDbLine
 10
338.8314263448968
 20
363.9252681656445
 30
0.0
 11
338.8314263448968
 21
292.1308424302846
 31
0.0
  0
LINE
  5
93
330
1F
100
AcDbEntity
  8
chh-05_Pen_No__7_Pen_No__7
  6
Continuous
100
AcDbLine
 10
267.7114637842403
 20
253.3987684607277
 30
0.0
 11
267.7114637842403
 21
88.67292758866463
 31
0.0
  0
LINE
  5
94
330
1F
100
AcDbEntity
  8
chh-05_Pen_No__7_Pen_No__7
  6
Continuous
100
AcDbLine
 10
228.7403206139415
 20
227.452755157042
 30
0.0
 11
228.7403206139415
 21
66.17292758866455
 31
0.0
  0
LINE
  5
95
330
1F
100
AcDbEntity
  8
chh-05_Pen_No__7_Pen_No__7
  6
Continuous
100
AcDbLine
 10
207.0896855193289
 20
211.8515331661565
 30
0.0
 11
207.0896855193289
 21
78.67292758866462
 31
0.0
  0
LINE
  5
96
330
1F
100
AcDbEntity
  8
chh-05_Pen_No__7_Pen_No__7
  6
Continuous
100
AcDbLine
 10
-120.9326287887767
 20
-210.6769665548171
 30
0.0
 11
-120.9326287887767
 21
-342.6546775205344
 31
0.0
  0
LINE
  5
97
330
1F
100
AcDbEntity
  8
chh-05_Pen_No__7_Pen_No__7
  6
Continuous
100
AcDbLine
 10
-159.9037719590764
 20
-264.1154244358391
 30
0.0
 11
-159.9037719590764
 21
-365.1546775205343
 31
0.0
  0
LINE
  5
98
330
1F
100
AcDbEntity
  8
chh-05_Pen_No__7_Pen_No__7
  6
Continuous
100
AcDbLine
 10
-181.5544070536872
 20
-276.6154244358397
 30
0.0
 11
-181.5544070536872
 21
-352.6546775205344
 31
0.0
  0
LINE
  5
99
330
1F
100
AcDbEntity
  8
chh-05_Pen_No__7_Pen_No__7
  6
Continuous
100
AcDbLine
 10
199.7547087436915
 20
389.7944434218564
 30
0.0
 11
199.7547087436915
 21
321.339689828289
 31
0.0
  0
LINE
  5
9A
330
1F
100
AcDbEntity
  8
chh-05_Pen_No__7_Pen_No__7
  6
Continuous
100
AcDbLine
 10
238.7258519139903
 20
412.2944434218564
 30
0.0
 11
238.7258519139903
 21
379.535143797737
 31
0.0
  0
LINE
  5
9B
330
1F
100
AcDbEntity
  8
chh-05_Pen_No__7_Pen_No__7
  6
Continuous
100
AcDbLine
 10
121.8124224030903
 20
434.7944434218564
 30
0.0
 11
121.8124224030903
 21
276.3396898282894
 31
0.0
  0
LINE
  5
9C
330
1F
100
AcDbEntity
  8
chh-txt_Pen_No__7_Pen_No__1
  6
Continuous
100
AcDbLine
 10
26.04784814765511
 20
-69.51571481118457
 30
0.0
 11
26.04784814765511
 21
-96.44446183812904
 31
0.0
  0
LINE
  5
9E
330
1F
100
AcDbEntity
  8
chh-txt_Pen_No__7_Pen_No__1
  6
Continuous
100
AcDbLine
 10
-46.62687824315119
 20
-136.7754670083785
 30
0.0
 11
27.84784814765536
 21
-93.48222125367734
 31
0.0
  0
LINE
  5
9F
330
1F
100
AcDbEntity
  8
chh-txt_Pen_No__7_Pen_No__1
  6
Continuous
100
AcDbLine
 10
62.92985410627479
 20
23.86685422331214
 30
0.0
 11
88.16713086537283
 21
53.39661303671317
 31
0.0
  0
LINE
  5
A0
330
1F
100
AcDbEntity
  8
chh-txt_Pen_No__7_Pen_No__1
  6
Continuous
100
AcDbLine
 10
98.36273639301014
 20
7.082055128282194
 30
0.0
 11
121.4984274111488
 21
34.15278000357036
 31
0.0
  0
LINE
  5
A1
330
1F
100
AcDbEntity
  8
chh-txt_Pen_No__7_Pen_No__1
  6
Continuous
100
AcDbLine
 10
80.01707855579605
 20
52.6603814658172
 30
0.0
 11
122.9706803943837
 21
27.86110788164442
 31
0.0
  0
LWPOLYLINE
  5
A2
330
1F
100
AcDbEntity
  8
chh-08_Pen_No__8_Pen_No__1
  6
Continuous
100
AcDbPolyline
 90
        2
 70
   128
 43
0.0
 10
308.5687429105028
 20
384.1635017461074
 42
-0.0049226397149587
 10
308.3141635759962
 20
358.3061182910903
  0
LWPOLYLINE
  5
A3
330
1F
100
AcDbEntity
  8
chh-08_Pen_No__8_Pen_No__1
  6
Continuous
100
AcDbPolyline
 90
        3
 70
   128
 43
0.0
 10
304.0489438962141
 20
275.30067110457
 42
-0.0218550976109797
 10
289.549518743209
 20
161.4675393587457
 42
0.0598371468160928
 10
277.8129592433262
 20
-69.07904177248182
  0
LWPOLYLINE
  5
A4
330
1F
100
AcDbEntity
  8
chh-08_Pen_No__8_Pen_No__1
  6
Continuous
100
AcDbPolyline
 90
        3
 70
   128
 43
0.0
 10
-282.7008698244503
 20
42.79383166993755
 42
-0.0426246365291313
 10
-301.7200939917422
 20
-179.9021307174239
 42
0.0598371468160928
 10
-313.456653491625
 20
-410.4487118486515
  0
LWPOLYLINE
  5
A5
330
1F
100
AcDbEntity
  8
chh-07_Pen_No__7_Pen_No__7
  6
Continuous
100
AcDbPolyline
 90
        4
 70
   128
 43
0.0
 10
-74.03372983804806
 20
125.5574591044046
 10
-78.36385685697005
 20
128.0574591044046
 10
-69.70360281912518
 20
133.0574591044046
 10
-65.37347580020318
 20
130.5574591044046
  0
LWPOLYLINE
  5
A6
330
1F
100
AcDbEntity
  8
chh-07_Pen_No__7_Pen_No__7
  6
Continuous
100
AcDbPolyline
 90
        4
 70
   128
 43
0.0
 10
55.87008072961792
 20
200.5574591044046
 10
51.53995371069682
 20
203.0574591044045
 10
60.20020774853992
 20
208.0574591044045
 10
64.53033476746191
 20
205.5574591044045
  0
LWPOLYLINE
  5
A7
330
1F
100
AcDbEntity
  8
chh-07_Pen_No__7_Pen_No__7
  6
Continuous
100
AcDbPolyline
 90
        4
 70
   128
 43
0.0
 10
-203.9375404057132
 20
50.55745910440446
 10
-208.2676674246352
 20
53.05745910440463
 10
-199.6074133867912
 20
58.05745910440463
 10
-195.2772863678692
 20
55.55745910440457
  0
LWPOLYLINE
  5
A8
330
1F
100
AcDbEntity
  8
chh-05_Pen_No__7_Pen_No__7
  6
Continuous
100
AcDbPolyline
 90
        4
 70
   129
 43
0.0
 10
-149.9182406590268
 20
187.9106719558673
 10
-227.8605269996262
 20
232.9106719558672
 10
-266.8316701699268
 20
210.4106719558671
 10
-188.8893838293265
 20
165.4106719558672
  0
LWPOLYLINE
  5
A9
330
1F
100
AcDbEntity
  8
chh-05_Pen_No__7_Pen_No__7
  6
Continuous
100
AcDbPolyline
 90
        4
 70
   129
 43
0.0
 10
-181.5544070536872
 20
136.8862231476626
 10
-142.5832638833876
 20
159.3862231476625
 10
-120.9326287887767
 20
146.8862231476625
 10
-159.9037719590764
 20
124.3862231476626
  0
LWPOLYLINE
  5
AA
330
1F
100
AcDbEntity
  8
chh-07_Pen_No__7_Pen_No__7
  6
Continuous
100
AcDbPolyline
 90
        4
 70
   128
 43
0.0
 10
315.677701864949
 20
350.5574591044042
 10
311.3475748460261
 20
353.0574591044042
 10
320.007828883871
 20
358.0574591044042
 10
324.3379559027929
 20
355.5574591044042
  0
LWPOLYLINE
  5
AB
330
1F
100
AcDbEntity
  8
chh-05_Pen_No__7_Pen_No__7
  6
Continuous
100
AcDbPolyline
 90
        4
 70
   129
 43
0.0
 10
207.0896855193289
 20
361.2699946136517
 10
246.0608286896304
 20
383.7699946136518
 10
267.7114637842403
 20
371.2699946136518
 10
228.7403206139415
 20
348.7699946136518
  0
LWPOLYLINE
  5
AC
330
1F
100
AcDbEntity
  8
chh-07_Pen_No__7_Pen_No__7
  6
Continuous
100
AcDbPolyline
 90
        3
 70
   128
 43
0.0
 10
-203.9375404057132
 20
-284.5383325019387
 10
-199.607413386792
 20
-282.0383325019394
 10
-195.2772863678701
 20
-284.5383325019393
  0
LWPOLYLINE
  5
AD
330
1F
100
AcDbEntity
  8
chh-07_Pen_No__7_Pen_No__7
  6
Continuous
100
AcDbPolyline
 90
        3
 70
   128
 43
0.0
 10
-74.03372983804717
 20
-96.10580060789175
 10
-69.70360281912518
 20
-93.60580060789236
 10
-65.37347580020318
 20
-96.1058006078923
  0
LWPOLYLINE
  5
AE
330
1F
100
AcDbEntity
  8
chh-07_Pen_No__7_Pen_No__7
  6
Continuous
100
AcDbPolyline
 90
        3
 70
   128
 43
0.0
 10
55.8700807296197
 20
83.03978497084674
 10
60.20020774854081
 20
85.53978497084613
 10
64.53033476746279
 20
83.03978497084618
  0
LWPOLYLINE
  5
AF
330
1F
100
AcDbEntity
  8
chh-07_Pen_No__7_Pen_No__7
  6
Continuous
100
AcDbPolyline
 90
        4
 70
   128
 43
0.0
 10
185.773891297283
 20
275.5574591044046
 10
181.443764278361
 20
278.0574591044046
 10
190.104018316205
 20
283.0574591044046
 10
194.4341453351279
 20
280.5574591044046
  0
LWPOLYLINE
  5
B0
330
1F
100
AcDbEntity
  8
chh-07_Pen_No__7_Pen_No__7
  6
Continuous
100
AcDbPolyline
 90
        3
 70
   128
 43
0.0
 10
185.7738912972857
 20
202.3136371790991
 10
190.1040183162085
 20
204.8136371790985
 10
194.4341453351296
 20
202.3136371790985
  0
LWPOLYLINE
  5
B1
330
1F
100
AcDbEntity
  8
chh-07_Pen_No__7_Pen_No__7
  6
Continuous
100
AcDbPolyline
 90
        3
 70
   128
 43
0.0
 10
315.6777018649507
 20
286.6322272823016
 10
320.0078288838719
 20
289.132227282301
 10
324.3379559027939
 20
286.632227282301
  0
LWPOLYLINE
  5
B2
330
1F
100
AcDbEntity
  8
chh-05_Pen_No__7_Pen_No__7
  6
Continuous
100
AcDbPolyline
 90
        3
 70
   128
 43
0.0
 10
267.7114637842403
 20
88.67292758866463
 10
228.7403206139415
 20
66.17292758866455
 10
207.0896855193289
 20
78.67292758866462
  0
LWPOLYLINE
  5
B3
330
1F
100
AcDbEntity
  8
chh-05_Pen_No__7_Pen_No__7
  6
Continuous
100
AcDbPolyline
 90
        3
 70
   128
 43
0.0
 10
-120.9326287887767
 20
-342.6546775205344
 10
-159.9037719590764
 20
-365.1546775205343
 10
-181.5544070536872
 20
-352.6546775205344
  0
LWPOLYLINE
  5
B4
330
1F
100
AcDbEntity
  8
chh-05_Pen_No__7_Pen_No__7
  6
Continuous
100
AcDbPolyline
 90
        4
 70
   129
 43
0.0
 10
238.7258519139903
 20
412.2944434218564
 10
160.78356557339
 20
457.2944434218564
 10
121.8124224030903
 20
434.7944434218564
 10
199.7547087436915
 20
389.7944434218564
  0
LWPOLYLINE
  5
B5
330
1F
100
AcDbEntity
  8
chh-txt_Pen_No__7_Pen_No__7
  6
Continuous
100
AcDbPolyline
 90
        2
 70
   128
 43
0.0
 10
-42.82687824315116
 20
-137.364251840074
 10
-46.82687824315072
 20
-133.364251840074
  0
LWPOLYLINE
  5
B7
330
1F
100
AcDbEntity
  8
chh-txt_Pen_No__7_Pen_No__7
  6
Continuous
100
AcDbPolyline
 90
        2
 70
   128
 43
0.0
 10
24.04784814765533
 20
-92.44446183812904
 10
28.04784814765489
 20
-96.44446183812904
  0
LWPOLYLINE
  5
B8
330
1F
100
AcDbEntity
  8
chh-txt_Pen_No__7_Pen_No__7
  6
Continuous
100
AcDbPolyline
 90
        2
 70
   128
 43
0.0
 10
121.2117115117103
 20
30.43177144473419
 10
115.556968130847
 20
30.58629424750925
  0
LWPOLYLINE
  5
B9
330
1F
100
AcDbEntity
  8
chh-txt_Pen_No__7_Pen_No__7
  6
Continuous
100
AcDbPolyline
 90
        2
 70
   128
 43
0.0
 10
87.88041496593353
 20
49.67560447787833
 10
82.22567158506928
 20
49.83012728065361
  0
LWPOLYLINE
  5
BA
330
1F
100
AcDbEntity
  8
chh-09_Pen_No__9_Pen_No__2
  6
Continuous
100
AcDbPolyline
 90
        2
 70
   128
 43
0.0
 10
307.0554657143717
 20
402.9190679619732
 10
251.1319791064161
 20
402.9190679619732
  0
LWPOLYLINE
  5
BB
330
1F
100
AcDbEntity
  8
chh-09_Pen_No__9_Pen_No__2
  6
Continuous
100
AcDbPolyline
 90
        2
 70
   128
 43
0.0
 10
307.0554657143717
 20
240.3975532262301
 10
229.4464789002217
 20
240.3975532262301
  0
LWPOLYLINE
  5
BC
330
1F
100
AcDbEntity
  8
chh-09_Pen_No__9_Pen_No__2
  6
Continuous
100
AcDbPolyline
 90
        2
 70
   128
 43
0.0
 10
307.0554657143717
 20
182.2837978240003
 10
273.8031826243447
 20
182.2837978240003
  0
LWPOLYLINE
  5
BD
330
1F
100
AcDbEntity
  8
chh-09_Pen_No__9_Pen_No__2
  6
Continuous
100
AcDbPolyline
 90
        2
 70
   128
 43
0.0
 10
307.0554657143717
 20
87.72582005131324
 10
289.5744629601197
 20
87.72582005131324
  0
LWPOLYLINE
  5
BE
330
1F
100
AcDbEntity
  8
chh-09_Pen_No__9_Pen_No__2
  6
Continuous
100
AcDbPolyline
 90
        2
 70
   128
 43
0.0
 10
307.0554657143717
 20
45.37172194538275
 10
180.1612175954419
 20
45.37172194538275
  0
LWPOLYLINE
  5
BF
330
1F
100
AcDbEntity
  8
chh-09_Pen_No__9_Pen_No__2
  6
Continuous
100
AcDbPolyline
 90
        2
 70
   128
 43
0.0
 10
307.0554657143717
 20
-19.63688564865895
 10
87.91272327872753
 20
-19.63688564865895
  0
LWPOLYLINE
  5
C0
330
1F
100
AcDbEntity
  8
chh-09_Pen_No__9_Pen_No__2
  6
Continuous
100
AcDbPolyline
 90
        2
 70
   128
 43
0.0
 10
307.0554657143717
 20
-133.8944350417206
 10
260.9890258977747
 20
-133.8944350417206
  0
ELLIPSE
  5
C1
330
1F
100
AcDbEntity
  8
chh-05_Pen_No__7_Pen_No__7
  6
Continuous
100
AcDbEllipse
 10
224.3060544417037
 20
-116.7476980195011
 30
0.0
 11
-26.51561103512813
 21
-45.9263855065769
 31
0.0
210
0.0
220
0.0
230
1.0
 40
0.5773502691896283
 41
0.0
 42
6.283185307179586
  0
ELLIPSE
  5
C2
330
1F
100
AcDbEntity
  8
chh-05_Pen_No__7_Pen_No__7
  6
Continuous
100
AcDbEllipse
 10
63.42629722990419
 20
-23.86372688610727
 30
0.0
 11
-26.51561103512813
 21
-45.9263855065769
 31
0.0
210
0.0
220
0.0
230
1.0
 40
0.5773502691896283
 41
3.141592653589794
 42
6.283185307179586
  0
ELLIPSE
  5
C3
330
1F
100
AcDbEntity
  8
chh-05_Pen_No__7_Pen_No__7
  6
Continuous
100
AcDbEllipse
 10
96.4683825880008
 20
-42.94058376219056
 30
0.0
 11
-26.51561103512813
 21
-45.9263855065769
 31
0.0
210
0.0
220
0.0
230
1.0
 40
0.5773502691896283
 41
3.141592653589793
 42
6.283185307179586
  0
ARC
  5
C4
330
1F
100
AcDbEntity
  8
chh-07_Pen_No__7_Pen_No__7
  6
Continuous
100
AcDbCircle
 10
366.6769813134009
 20
196.8838682766288
 30
0.0
 40
99.23387031115371
100
AcDbArc
 50
106.2963372353857
 51
115.2557189482795
  0
ARC
  5
C5
330
1F
100
AcDbEntity
  8
chh-07_Pen_No__7_Pen_No__7
  6
Continuous
100
AcDbCircle
 10
798.1962597584989
 20
-585.6346306960196
 30
0.0
 40
992.6687079083214
100
AcDbArc
 50
119.0833974817963
 51
127.4609921956102
  0
ARC
  5
C6
330
1F
100
AcDbEntity
  8
chh-07_Pen_No__7_Pen_No__7
  6
Continuous
100
AcDbCircle
 10
798.1962597584989
 20
-585.6346306960196
 30
0.0
 40
992.6687079083214
100
AcDbArc
 50
128.0934111075348
 51
137.6534761106125
  0
ARC
  5
C7
330
1F
100
AcDbEntity
  8
chh-07_Pen_No__7_Pen_No__7
  6
Continuous
100
AcDbCircle
 10
798.1962597584989
 20
-585.6346306960196
 30
0.0
 40
992.6687079083214
100
AcDbArc
 50
138.4009054229697
 51
150.4525479884934
  0
ARC
  5
C8
330
1F
100
AcDbEntity
  8
chh-07_Pen_No__7_Pen_No__7
  6
Continuous
100
AcDbCircle
 10
798.1962597584989
 20
-585.6346306960196
 30
0.0
 40
992.6687079083214
100
AcDbArc
 50
151.482554881948
 51
160.2627881381156
  0
SPLINE
  5
C9
330
1F
100
AcDbEntity
  8
chh-05_Pen_No__7_Pen_No__7
  6
Continuous
100
AcDbSpline
210
0.0
220
0.0
230
1.0
 70
    11
 71
     3
 72
   104
 73
   100
 74
     0
 42
0.00001
 43
0.00001
 40
0.0
 40
0.0
 40
0.0
 40
0.0
 40
1.0
 40
1.0
 40
1.0
 40
2.0
 40
2.0
 40
2.0
 40
3.0
 40
3.0
 40
3.0
 40
4.0
 40
4.0
 40
4.0
 40
5.0
 40
5.0
 40
5.0
 40
6.0
 40
6.0
 40
6.0
 40
7.0
 40
7.0
 40
7.0
 40
8.0
 40
8.0
 40
8.0
 40
9.0
 40
9.0
 40
9.0
 40
10.0
 40
10.0
 40
10.0
 40
11.0
 40
11.0
 40
11.0
 40
12.0
 40
12.0
 40
12.0
 40
13.0
 40
13.0
 40
13.0
 40
14.0
 40
14.0
 40
14.0
 40
15.0
 40
15.0
 40
15.0
 40
16.0
 40
16.0
 40
16.0
 40
17.0
 40
17.0
 40
17.0
 40
18.0
 40
18.0
 40
18.0
 40
19.0
 40
19.0
 40
19.0
 40
20.0
 40
20.0
 40
20.0
 40
21.0
 40
21.0
 40
21.0
 40
22.0
 40
22.0
 40
22.0
 40
23.0
 40
23.0
 40
23.0
 40
24.0
 40
24.0
 40
24.0
 40
25.0
 40
25.0
 40
25.0
 40
26.0
 40
26.0
 40
26.0
 40
27.0
 40
27.0
 40
27.0
 40
28.0
 40
28.0
 40
28.0
 40
29.0
 40
29.0
 40
29.0
 40
30.0
 40
30.0
 40
30.0
 40
31.0
 40
31.0
 40
31.0
 40
32.0
 40
32.0
 40
32.0
 40
33.0
 40
33.0
 40
33.0
 40
33.0
 10
200.2904434065742
 20
-158.3439565071553
 30
0.0
 10
201.3665099902775
 20
-158.9652238389219
 30
0.0
 10
202.5340739931722
 20
-159.4309022540191
 30
0.0
 10
203.8156295618829
 20
-159.7377205068809
 30
0.0
 10
205.0971851305935
 20
-160.0445387597428
 30
0.0
 10
206.4943523589739
 20
-160.1908309816207
 30
0.0
 10
208.0079365570577
 20
-160.1523236977869
 30
0.0
 10
209.5215207551415
 20
-160.1138164139531
 30
0.0
 10
211.150753482937
 20
-159.8891142292467
 30
0.0
 10
212.8701621803334
 20
-159.4589520201024
 30
0.0
 10
214.5895708777298
 20
-159.0287898109581
 30
0.0
 10
216.3982168681532
 20
-158.3930447517817
 30
0.0
 10
218.258797994794
 20
-157.5481545258216
 30
0.0
 10
220.1193791213433
 20
-156.7032642999031
 30
0.0
 10
222.0314799130747
 20
-155.6494939052778
 30
0.0
 10
223.9560490145044
 20
-154.3971920410904
 30
0.0
 10
225.8806181160781
 20
-153.1448901768092
 30
0.0
 10
227.817528072977
 20
-151.6942858854023
 30
0.0
 10
229.7297822463295
 20
-150.0657874243805
 30
0.0
 10
232.5737236210245
 20
-147.6438530306867
 30
0.0
 10
235.3622531243277
 20
-144.827487066619
 30
0.0
 10
237.9869867008135
 20
-141.7123110365549
 30
0.0
 10
240.6117202774165
 20
-138.5971350063517
 30
0.0
 10
243.0724637369238
 20
-135.1837983347692
 30
0.0
 10
245.2795466083192
 20
-131.5911228143226
 30
0.0
 10
247.4866294796533
 20
-127.998447293976
 30
0.0
 10
249.4397818188275
 20
-124.2269430569463
 30
0.0
 10
251.0714907581721
 20
-120.4100958457713
 30
0.0
 10
252.7031996974187
 20
-116.5932486348257
 30
0.0
 10
254.0130745405237
 20
-112.7315353290854
 30
0.0
 10
254.9606415564375
 20
-108.9657773353454
 30
0.0
 10
255.9082085723944
 20
-105.2000193414341
 30
0.0
 10
256.4928163205936
 20
-101.5308354075293
 30
0.0
 10
256.7086545627155
 20
-98.09849402328219
 30
0.0
 10
256.9244928048417
 20
-94.66615263896661
 30
0.0
 10
256.7706256444648
 20
-91.47226548033697
 30
0.0
 10
256.2881772291533
 20
-88.64128971137019
 30
0.0
 10
255.9276514917818
 20
-86.52574824787729
 30
0.0
 10
255.3849915771069
 20
-84.61334292602882
 30
0.0
 10
254.6964189106117
 20
-82.93604922113207
 30
0.0
 10
254.007846244139
 20
-81.25875551629014
 30
0.0
 10
253.1752990772157
 20
-79.81749874137302
 30
0.0
 10
252.2359248884382
 20
-78.60886983625981
 30
0.0
 10
251.2965507001687
 20
-77.4002409318002
 30
0.0
 10
250.2526623994138
 20
-76.42175602686969
 30
0.0
 10
249.1057590430247
 20
-75.64309679862325
 30
0.0
 10
247.9588556870717
 20
-74.86443757067285
 30
0.0
 10
246.7057953161224
 20
-74.2821026970446
 30
0.0
 10
245.3155227924239
 20
-73.89244326186362
 30
0.0
 10
243.9252502676658
 20
-73.50278382638564
 30
0.0
 10
242.3944347157262
 20
-73.308091685579
 30
0.0
 10
240.7186820649405
 20
-73.34050771030599
 30
0.0
 10
239.0429294165163
 20
-73.37292373498727
 30
0.0
 10
237.2234351309374
 20
-73.63486012527676
 30
0.0
 10
235.2958300488478
 20
-74.15211589198223
 30
0.0
 10
233.3682249637074
 20
-74.66937165950638
 30
0.0
 10
231.3340208297477
 20
-75.4420613206818
 30
0.0
 10
229.2452823773955
 20
-76.4720776372847
 30
0.0
 10
227.1565439252716
 20
-77.50209395377506
 30
0.0
 10
225.0138460993126
 20
-78.7889791669913
 30
0.0
 10
222.8703359693075
 20
-80.31460197223473
 30
0.0
 10
220.7268258391798
 20
-81.84022477756547
 30
0.0
 10
218.5826523093002
 20
-83.60424235375606
 30
0.0
 10
216.4870992575476
 20
-85.5746693755961
 30
0.0
 10
214.3915462079843
 20
-87.54509639537744
 30
0.0
 10
212.3446631749076
 20
-89.72172086117793
 30
0.0
 10
210.3905501335423
 20
-92.06279553506913
 30
0.0
 10
207.6593363281344
 20
-95.33485571453294
 30
0.0
 10
205.1104279968488
 20
-98.92874910108732
 30
0.0
 10
202.8447798307382
 20
-102.7080218140791
 30
0.0
 10
200.5791316645637
 20
-106.4872945271775
 30
0.0
 10
198.5970878585115
 20
-110.4513183341182
 30
0.0
 10
196.9728609821845
 20
-114.4468566660156
 30
0.0
 10
195.3486341052073
 20
-118.4423949995128
 30
0.0
 10
194.0827366661635
 20
-122.4688512792923
 30
0.0
 10
193.2163267246316
 20
-126.3652813945764
 30
0.0
 10
192.3499167832305
 20
-130.261711509272
 30
0.0
 10
191.8838800484042
 20
-134.0272527406556
 30
0.0
 10
191.8160880228387
 20
-137.5036226331463
 30
0.0
 10
191.7625255477897
 20
-140.2503022621231
 30
0.0
 10
191.9569445902178
 20
-142.815870878689
 30
0.0
 10
192.3726117223478
 20
-145.1324223401085
 30
0.0
 10
192.7882788546406
 20
-147.448973802435
 30
0.0
 10
193.424669881362
 20
-149.5147147451766
 30
0.0
 10
194.2315533800342
 20
-151.2903660518973
 30
0.0
 10
194.9005068400724
 20
-152.7624845019668
 30
0.0
 10
195.6848725956301
 20
-154.0355122217488
 30
0.0
 10
196.5575023884091
 20
-155.1153147917314
 30
0.0
 10
197.4301321820248
 20
-156.1951173627492
 30
0.0
 10
198.3896189342418
 20
-157.0834838180975
 30
0.0
 10
199.4356151685836
 20
-157.8039282841012
 30
0.0
 10
199.7141099766534
 20
-157.9957454596295
 30
0.0
 10
199.9989478396606
 20
-158.1756536499488
 30
0.0
 10
200.2904620234022
 20
-158.3439593924478
 30
0.0
 10
200.2904620246421
 20
-158.3439593931637
 30
0.0
 10
200.2904432997884
 20
-158.3439564894413
 30
0.0
 10
200.2904433013277
 20
-158.3439564894413
 30
0.0
 10
200.2904433013277
 20
-158.3439564894413
 30
0.0
 10
200.2904434065742
 20
-158.3439565071553
 30
0.0
 10
200.2904434065742
 20
-158.3439565071553
 30
0.0
  0
MTEXT
  5
CB
330
1F
100
AcDbEntity
  8
chh-txt_Pen_No__7_Pen_No__7
  6
Continuous
100
AcDbMText
 10
-20.58821412704328
 20
-119.5271016807891
 30
0.0
 40
5.0
 41
0.0
 71
     7
 72
     1
  1
{100mm }
  7
GENERATED_STYLE_1
 11
0.8660253963338679
 21
0.5000000129047668
 31
0.0
 73
     1
 44
1.0
  0
MTEXT
  5
EE
330
1F
100
AcDbEntity
  8
chh-txt_Pen_No__7_Pen_No__7
  6
Continuous
100
AcDbMText
 10
-16.80663221037065
 20
-131.2871393280767
 30
0.0
 40
5.0
 41
0.0
 71
     7
 72
     1
  1
{all round}
  7
GENERATED_STYLE_1
 11
0.8660254037844344
 21
0.5000000000000073
 31
0.0
 73
     1
 44
1.0
  0
MTEXT
  5
EF
330
1F
100
AcDbEntity
  8
chh-txt_Pen_No__7_Pen_No__7
  6
Continuous
100
AcDbMText
 10
92.87262625081947
 20
55.90551964266514
 30
0.0
 40
5.0
 41
0.0
 71
     7
 72
     1
  1
{25mm }
  7
GENERATED_STYLE_1
 11
0.866025411234871
 21
-0.4999999870954724
 31
0.0
 73
     1
 44
1.0
  0
MTEXT
  5
F0
330
1F
100
AcDbEntity
  8
chh-txt_Pen_No__7_Pen_No__7
  6
Continuous
100
AcDbMText
 10
93.69893162144247
 20
48.53420629499195
 30
0.0
 40
5.0
 41
0.0
 71
     7
 72
     1
  1
{min}
  7
GENERATED_STYLE_1
 11
0.8660254037843944
 21
-0.5000000000000767
 31
0.0
 73
     1
 44
1.0
  0
MTEXT
  5
F1
330
1F
100
AcDbEntity
  8
chh-txt_Pen_No__7_Pen_No__7
  6
Continuous
100
AcDbMText
 10
311.2492095924561
 20
41.42549444343636
 30
0.0
 40
5.0
 41
0.0
 71
     7
 72
     1
  1
{Square of flexible flashing tape over building }
  7
GENERATED_STYLE_1
 73
     1
 44
1.0
  0
MTEXT
  5
F2
330
1F
100
AcDbEntity
  8
chh-txt_Pen_No__7_Pen_No__7
  6
Continuous
100
AcDbMText
 10
311.5394998827463
 20
32.01219012964949
 30
0.0
 40
5.0
 41
0.0
 71
     7
 72
     1
  1
{underlay to a min of 100mm outside of pipe.}
  7
GENERATED_STYLE_1
 73
     1
 44
1.0
  0
MTEXT
  5
F3
330
1F
100
AcDbEntity
  8
chh-txt_Pen_No__7_Pen_No__7
  6
Continuous
100
AcDbMText
 10
311.7196800629267
 20
22.60039012964949
 30
0.0
 40
5.0
 41
0.0
 71
     7
 72
     1
  1
{Ensure seal with pipe bandage}
  7
GENERATED_STYLE_1
 73
     1
 44
1.0
  0
MTEXT
  5
F4
330
1F
100
AcDbEntity
  8
chh-txt_Pen_No__7_Pen_No__7
  6
Continuous
100
AcDbMText
 10
311.7397000829462
 20
-23.8591066705659
 30
0.0
 40
5.0
 41
0.0
 71
     7
 72
     1
  1
{Flexible flashing tape bandage min 25mm }
  7
GENERATED_STYLE_1
 73
     1
 44
1.0
  0
MTEXT
  5
F5
330
1F
100
AcDbEntity
  8
chh-txt_Pen_No__7_Pen_No__7
  6
Continuous
100
AcDbMText
 10
310.6886490318954
 20
-33.19507943859735
 30
0.0
 40
5.0
 41
0.0
 71
     7
 72
     1
  1
{wide all round pipe}
  7
GENERATED_STYLE_1
 73
     1
 44
1.0
  0
MTEXT
  5
F6
330
1F
100
AcDbEntity
  8
chh-txt_Pen_No__7_Pen_No__7
  6
Continuous
100
AcDbMText
 10
311.6996600429062
 20
-138.4732408996862
 30
0.0
 40
5.0
 41
0.0
 71
     7
 72
     1
  1
{Pipe to have min 5° fall to outside}
  7
GENERATED_STYLE_1
 73
     1
 44
1.0
  0
MTEXT
  5
F7
330
1F
100
AcDbEntity
  8
chh-txt_Pen_No__7_Pen_No__7
  6
Continuous
100
AcDbMText
 10
311.329289672537
 20
178.5186440908992
 30
0.0
 40
5.0
 41
0.0
 71
     7
 72
     1
  1
{Cavity batten}
  7
GENERATED_STYLE_1
 73
     1
 44
1.0
  0
MTEXT
  5
F8
330
1F
100
AcDbEntity
  8
chh-txt_Pen_No__7_Pen_No__7
  6
Continuous
100
AcDbMText
 10
311.6596200028662
 20
82.55811426840299
 30
0.0
 40
5.0
 41
0.0
 71
     7
 72
     1
  1
{Building underlay. Carefully cut to suit pipe. }
  7
GENERATED_STYLE_1
 73
     1
 44
1.0
  0
MTEXT
  5
F9
330
1F
100
AcDbEntity
  8
chh-txt_Pen_No__7_Pen_No__7
  6
Continuous
100
AcDbMText
 10
311.2492095924561
 20
238.7898423525326
 30
0.0
 40
5.0
 41
0.0
 71
     7
 72
     1
  1
{Shadowclad carefully cut to suit pipe }
  7
GENERATED_STYLE_1
 73
     1
 44
1.0
  0
MTEXT
  5
FA
330
1F
100
AcDbEntity
  8
chh-txt_Pen_No__7_Pen_No__7
  6
Continuous
100
AcDbMText
 10
311.569529912776
 20
229.4538695845014
 30
0.0
 40
5.0
 41
0.0
 71
     7
 72
     1
  1
{penetration.}
  7
GENERATED_STYLE_1
 73
     1
 44
1.0
  0
MTEXT
  5
FB
330
1F
100
AcDbEntity
  8
chh-txt_Pen_No__7_Pen_No__7
  6
Continuous
100
AcDbMText
 10
310.7887491319958
 20
400.1282587265796
 30
0.0
 40
5.0
 41
0.0
 71
     7
 72
     1
  1
{Wall framing}
  7
GENERATED_STYLE_1
 73
     1
 44
1.0
  0
MTEXT
  5
FC
330
1F
100
AcDbEntity
  8
Defpoints_Pen_No__1_Pen_No__115
  6
Continuous
100
AcDbMText
 10
-147.2475973342749
 20
-400.479989019912
 30
0.0
 40
10.0
 41
0.0
 71
     7
 72
     1
  1
{SC040 Shadowclad Pipe Penetration (Cavity)}
  7
GENERATED_STYLE_1
 73
     1
 44
1.0
  0
ENDSEC
  0
SECTION
  2
OBJECTS
  0
DICTIONARY
  5
C
330
0
100
AcDbDictionary
281
     1
  3
ACAD_GROUP
350
D
  3
ACAD_LAYOUT
350
1A
  3
ACAD_MLEADERSTYLE
350
106
  3
ACAD_MLINESTYLE
350
17
  3
ACAD_PLOTSETTINGS
350
19
  3
ACAD_PLOTSTYLENAME
350
E
  3
ACAD_SCALELIST
350
CC
  3
ACAD_TABLESTYLE
350
105
  3
ACAD_VISUALSTYLE
350
2A
  3
AcDbVariableDictionary
350
103
  3
WATERMARKS
350
101
  0
DICTIONARY
  5
D
102
{ACAD_REACTORS
330
C
102
}
330
C
100
AcDbDictionary
281
     1
  0
DICTIONARY
  5
1A
102
{ACAD_REACTORS
330
C
102
}
330
C
100
AcDbDictionary
281
     1
  3
Layout1
350
1E
  3
Layout2
350
26
  3
Model
350
22
  0
DICTIONARY
  5
106
102
{ACAD_REACTORS
330
C
102
}
330
C
100
AcDbDictionary
281
     1
  0
DICTIONARY
  5
17
102
{ACAD_REACTORS
330
C
102
}
330
C
100
AcDbDictionary
281
     1
  3
Standard
350
18
  0
DICTIONARY
  5
19
102
{ACAD_REACTORS
330
C
102
}
330
C
100
AcDbDictionary
281
     1
  0
ACDBDICTIONARYWDFLT
  5
E
102
{ACAD_REACTORS
330
C
102
}
330
C
100
AcDbDictionary
281
     1
  3
Normal
350
F
100
AcDbDictionaryWithDefault
340
F
  0
DICTIONARY
  5
CC
102
{ACAD_REACTORS
330
C
102
}
330
C
100
AcDbDictionary
281
     1
  3
A0
350
CD
  3
A1
350
CE
  3
A2
350
CF
  3
A3
350
D0
  3
A4
350
D1
  3
A5
350
D2
  3
A6
350
D3
  3
A7
350
D4
  3
A8
350
D5
  3
A9
350
D6
  3
B0
350
D7
  3
B1
350
D8
  3
B2
350
D9
  3
B3
350
DA
  3
B4
350
DB
  3
B5
350
DC
  3
B6
350
DD
  3
B7
350
DE
  3
B8
350
DF
  3
B9
350
E0
  3
C0
350
E1
  3
C1
350
E2
  3
C2
350
E3
  3
C3
350
E4
  3
C4
350
E5
  3
C5
350
E6
  3
C6
350
E7
  3
C7
350
E8
  3
C8
350
E9
  3
C9
350
EA
  3
D0
350
EB
  3
D1
350
EC
  3
D2
350
ED
  0
DICTIONARY
  5
105
102
{ACAD_REACTORS
330
C
102
}
330
C
100
AcDbDictionary
281
     1
  0
DICTIONARY
  5
2A
102
{ACAD_REACTORS
330
C
102
}
330
C
100
AcDbDictionary
281
     1
  3
2dWireframe
350
2F
  3
3D Hidden
350
31
  3
3dWireframe
350
30
  3
Basic
350
32
  3
Brighten
350
36
  3
ColorChange
350
3A
  3
Conceptual
350
34
  3
Dim
350
35
  3
Facepattern
350
39
  3
Flat
350
2B
  3
FlatWithEdges
350
2C
  3
Gouraud
350
2D
  3
GouraudWithEdges
350
2E
  3
Linepattern
350
38
  3
Realistic
350
33
  3
Thicken
350
37
  0
DICTIONARY
  5
103
102
{ACAD_REACTORS
330
C
102
}
330
C
100
AcDbDictionary
281
     1
  3
CANNOSCALE
350
104
  0
DICTIONARY
  5
101
102
{ACAD_REACTORS
330
C
102
}
330
C
100
AcDbDictionary
281
     1
  3
AC_WATERMARK
350
102
  0
LAYOUT
  5
1E
102
{ACAD_REACTORS
330
1A
102
}
330
1A
100
AcDbPlotSettings
  1

  2
none_device
  4

  6

 40
0.0
 41
0.0
 42
0.0
 43
0.0
 44
0.0
 45
0.0
 46
0.0
 47
0.0
 48
0.0
 49
0.0
140
0.0
141
0.0
142
1.0
143
1.0
 70
   688
 72
     0
 73
     0
 74
     5
  7

 75
    16
 76
     0
 77
     2
 78
   300
147
1.0
148
0.0
149
0.0
100
AcDbLayout
  1
Layout1
 70
     1
 71
     1
 10
0.0
 20
0.0
 11
12.0
 21
9.0
 12
0.0
 22
0.0
 32
0.0
 14
1.000000000000000E+20
 24
1.000000000000000E+20
 34
1.000000000000000E+20
 15
-1.000000000000000E+20
 25
-1.000000000000000E+20
 35
-1.000000000000000E+20
146
0.0
 13
0.0
 23
0.0
 33
0.0
 16
1.0
 26
0.0
 36
0.0
 17
0.0
 27
1.0
 37
0.0
 76
     0
330
1B
  0
LAYOUT
  5
26
102
{ACAD_REACTORS
330
1A
102
}
330
1A
100
AcDbPlotSettings
  1

  2
none_device
  4

  6

 40
0.0
 41
0.0
 42
0.0
 43
0.0
 44
0.0
 45
0.0
 46
0.0
 47
0.0
 48
0.0
 49
0.0
140
0.0
141
0.0
142
1.0
143
1.0
 70
   688
 72
     0
 73
     0
 74
     5
  7

 75
    16
 76
     0
 77
     2
 78
   300
147
1.0
148
0.0
149
0.0
100
AcDbLayout
  1
Layout2
 70
     1
 71
     2
 10
0.0
 20
0.0
 11
0.0
 21
0.0
 12
0.0
 22
0.0
 32
0.0
 14
0.0
 24
0.0
 34
0.0
 15
0.0
 25
0.0
 35
0.0
146
0.0
 13
0.0
 23
0.0
 33
0.0
 16
1.0
 26
0.0
 36
0.0
 17
0.0
 27
1.0
 37
0.0
 76
     0
330
23
  0
LAYOUT
  5
22
102
{ACAD_REACTORS
330
1A
102
}
330
1A
100
AcDbPlotSettings
  1

  2
none_device
  4

  6

 40
0.0
 41
0.0
 42
0.0
 43
0.0
 44
0.0
 45
0.0
 46
0.0
 47
0.0
 48
0.0
 49
0.0
140
0.0
141
0.0
142
1.0
143
1.0
 70
  1712
 72
     0
 73
     0
 74
     0
  7

 75
     0
 76
     0
 77
     2
 78
   300
147
1.0
148
0.0
149
0.0
100
AcDbLayout
  1
Model
 70
     1
 71
     0
 10
0.0
 20
0.0
 11
12.0
 21
9.0
 12
0.0
 22
0.0
 32
0.0
 14
1.000000000000000E+20
 24
1.000000000000000E+20
 34
1.000000000000000E+20
 15
-1.000000000000000E+20
 25
-1.000000000000000E+20
 35
-1.000000000000000E+20
146
0.0
 13
0.0
 23
0.0
 33
0.0
 16
1.0
 26
0.0
 36
0.0
 17
0.0
 27
1.0
 37
0.0
 76
     0
330
1F
331
29
  0
MLINESTYLE
  5
18
102
{ACAD_REACTORS
330
17
102
}
330
17
100
AcDbMlineStyle
  2
Standard
 70
     0
  3

 62
   256
 51
90.0
 52
90.0
 71
     2
 49
0.5
 62
   256
  6
BYLAYER
 49
-0.5
 62
   256
  6
BYLAYER
  0
ACDBPLACEHOLDER
  5
F
102
{ACAD_REACTORS
330
E
102
}
330
E
  0
SCALE
  5
CD
102
{ACAD_REACTORS
330
CC
102
}
330
CC
100
AcDbScale
 70
     0
300
1:1
140
1.0
141
1.0
290
     1
  0
SCALE
  5
CE
102
{ACAD_REACTORS
330
CC
102
}
330
CC
100
AcDbScale
 70
     0
300
1:2
140
1.0
141
2.0
290
     0
  0
SCALE
  5
CF
102
{ACAD_REACTORS
330
CC
102
}
330
CC
100
AcDbScale
 70
     0
300
1:4
140
1.0
141
4.0
290
     0
  0
SCALE
  5
D0
102
{ACAD_REACTORS
330
CC
102
}
330
CC
100
AcDbScale
 70
     0
300
1:5
140
1.0
141
5.0
290
     0
  0
SCALE
  5
D1
102
{ACAD_REACTORS
330
CC
102
}
330
CC
100
AcDbScale
 70
     0
300
1:8
140
1.0
141
8.0
290
     0
  0
SCALE
  5
D2
102
{ACAD_REACTORS
330
CC
102
}
330
CC
100
AcDbScale
 70
     0
300
1:10
140
1.0
141
10.0
290
     0
  0
SCALE
  5
D3
102
{ACAD_REACTORS
330
CC
102
}
330
CC
100
AcDbScale
 70
     0
300
1:16
140
1.0
141
16.0
290
     0
  0
SCALE
  5
D4
102
{ACAD_REACTORS
330
CC
102
}
330
CC
100
AcDbScale
 70
     0
300
1:20
140
1.0
141
20.0
290
     0
  0
SCALE
  5
D5
102
{ACAD_REACTORS
330
CC
102
}
330
CC
100
AcDbScale
 70
     0
300
1:30
140
1.0
141
30.0
290
     0
  0
SCALE
  5
D6
102
{ACAD_REACTORS
330
CC
102
}
330
CC
100
AcDbScale
 70
     0
300
1:40
140
1.0
141
40.0
290
     0
  0
SCALE
  5
D7
102
{ACAD_REACTORS
330
CC
102
}
330
CC
100
AcDbScale
 70
     0
300
1:50
140
1.0
141
50.0
290
     0
  0
SCALE
  5
D8
102
{ACAD_REACTORS
330
CC
102
}
330
CC
100
AcDbScale
 70
     0
300
1:100
140
1.0
141
100.0
290
     0
  0
SCALE
  5
D9
102
{ACAD_REACTORS
330
CC
102
}
330
CC
100
AcDbScale
 70
     0
300
2:1
140
2.0
141
1.0
290
     0
  0
SCALE
  5
DA
102
{ACAD_REACTORS
330
CC
102
}
330
CC
100
AcDbScale
 70
     0
300
4:1
140
4.0
141
1.0
290
     0
  0
SCALE
  5
DB
102
{ACAD_REACTORS
330
CC
102
}
330
CC
100
AcDbScale
 70
     0
300
8:1
140
8.0
141
1.0
290
     0
  0
SCALE
  5
DC
102
{ACAD_REACTORS
330
CC
102
}
330
CC
100
AcDbScale
 70
     0
300
10:1
140
10.0
141
1.0
290
     0
  0
SCALE
  5
DD
102
{ACAD_REACTORS
330
CC
102
}
330
CC
100
AcDbScale
 70
     0
300
100:1
140
100.0
141
1.0
290
     0
  0
SCALE
  5
DE
102
{ACAD_REACTORS
330
CC
102
}
330
CC
100
AcDbScale
 70
     0
300
1/128" = 1'-0"
140
0.0078125
141
12.0
290
     0
  0
SCALE
  5
DF
102
{ACAD_REACTORS
330
CC
102
}
330
CC
100
AcDbScale
 70
     0
300
1/64" = 1'-0"
140
0.015625
141
12.0
290
     0
  0
SCALE
  5
E0
102
{ACAD_REACTORS
330
CC
102
}
330
CC
100
AcDbScale
 70
     0
300
1/32" = 1'-0"
140
0.03125
141
12.0
290
     0
  0
SCALE
  5
E1
102
{ACAD_REACTORS
330
CC
102
}
330
CC
100
AcDbScale
 70
     0
300
1/16" = 1'-0"
140
0.0625
141
12.0
290
     0
  0
SCALE
  5
E2
102
{ACAD_REACTORS
330
CC
102
}
330
CC
100
AcDbScale
 70
     0
300
3/32" = 1'-0"
140
0.09375
141
12.0
290
     0
  0
SCALE
  5
E3
102
{ACAD_REACTORS
330
CC
102
}
330
CC
100
AcDbScale
 70
     0
300
1/8" = 1'-0"
140
0.125
141
12.0
290
     0
  0
SCALE
  5
E4
102
{ACAD_REACTORS
330
CC
102
}
330
CC
100
AcDbScale
 70
     0
300
3/16" = 1'-0"
140
0.1875
141
12.0
290
     0
  0
SCALE
  5
E5
102
{ACAD_REACTORS
330
CC
102
}
330
CC
100
AcDbScale
 70
     0
300
1/4" = 1'-0"
140
0.25
141
12.0
290
     0
  0
SCALE
  5
E6
102
{ACAD_REACTORS
330
CC
102
}
330
CC
100
AcDbScale
 70
     0
300
3/8" = 1'-0"
140
0.375
141
12.0
290
     0
  0
SCALE
  5
E7
102
{ACAD_REACTORS
330
CC
102
}
330
CC
100
AcDbScale
 70
     0
300
1/2" = 1'-0"
140
0.5
141
12.0
290
     0
  0
SCALE
  5
E8
102
{ACAD_REACTORS
330
CC
102
}
330
CC
100
AcDbScale
 70
     0
300
3/4" = 1'-0"
140
0.75
141
12.0
290
     0
  0
SCALE
  5
E9
102
{ACAD_REACTORS
330
CC
102
}
330
CC
100
AcDbScale
 70
     0
300
1" = 1'-0"
140
1.0
141
12.0
290
     0
  0
SCALE
  5
EA
102
{ACAD_REACTORS
330
CC
102
}
330
CC
100
AcDbScale
 70
     0
300
1-1/2" = 1'-0"
140
1.5
141
12.0
290
     0
  0
SCALE
  5
EB
102
{ACAD_REACTORS
330
CC
102
}
330
CC
100
AcDbScale
 70
     0
300
3" = 1'-0"
140
3.0
141
12.0
290
     0
  0
SCALE
  5
EC
102
{ACAD_REACTORS
330
CC
102
}
330
CC
100
AcDbScale
 70
     0
300
6" = 1'-0"
140
6.0
141
12.0
290
     0
  0
SCALE
  5
ED
102
{ACAD_REACTORS
330
CC
102
}
330
CC
100
AcDbScale
 70
     0
300
1'-0" = 1'-0"
140
12.0
141
12.0
290
     0
  0
VISUALSTYLE
  5
2F
102
{ACAD_REACTORS
330
2A
102
}
330
2A
100
AcDbVisualStyle
  2
2dWireframe
 70
     4
 71
     0
 72
     2
 73
     0
 90
        0
 40
-0.6
 41
-30.0
 62
     5
 63
     7
421
 16777215
 74
     1
 91
        4
 64
     7
 65
   257
 75
     1
175
     1
 42
1.0
 92
        0
 66
   257
 43
1.0
 76
     1
 77
     6
 78
     2
 67
     7
 79
     5
170
     0
171
     0
290
     0
174
     0
 93
        1
 44
0.0
173
     0
291
     0
 45
0.0
1001
ACAD
1000
AcDbSavedByObjectVersion
1070
     0
  0
VISUALSTYLE
  5
31
102
{ACAD_REACTORS
330
2A
102
}
330
2A
100
AcDbVisualStyle
  2
3D Hidden
 70
     6
 71
     1
 72
     2
 73
     2
 90
        0
 40
-0.6
 41
-30.0
 62
     5
 63
     7
421
 16777215
 74
     2
 91
        2
 64
     7
 65
   257
 75
     2
175
     1
 42
40.0
 92
        0
 66
   257
 43
1.0
 76
     1
 77
     6
 78
     2
 67
     7
 79
     3
170
     0
171
     0
290
     0
174
     0
 93
        1
 44
0.0
173
     0
291
     0
 45
0.0
1001
ACAD
1000
AcDbSavedByObjectVersion
1070
     0
  0
VISUALSTYLE
  5
30
102
{ACAD_REACTORS
330
2A
102
}
330
2A
100
AcDbVisualStyle
  2
3dWireframe
 70
     5
 71
     0
 72
     2
 73
     0
 90
        0
 40
-0.6
 41
-30.0
 62
     5
 63
     7
421
 16777215
 74
     1
 91
        4
 64
     7
 65
   257
 75
     1
175
     1
 42
1.0
 92
        0
 66
   257
 43
1.0
 76
     1
 77
     6
 78
     2
 67
     7
 79
     5
170
     0
171
     0
290
     0
174
     0
 93
        1
 44
0.0
173
     0
291
     0
 45
0.0
1001
ACAD
1000
AcDbSavedByObjectVersion
1070
     0
  0
VISUALSTYLE
  5
32
102
{ACAD_REACTORS
330
2A
102
}
330
2A
100
AcDbVisualStyle
  2
Basic
 70
     7
 71
     1
 72
     0
 73
     1
 90
        0
 40
-0.6
 41
-30.0
 62
     5
 63
     7
421
 16777215
 74
     0
 91
        4
 64
     7
 65
   257
 75
     1
175
     1
 42
1.0
 92
        8
 66
     7
 43
1.0
 76
     1
 77
     6
 78
     2
 67
     7
 79
     5
170
     0
171
     0
290
     0
174
     0
 93
        1
 44
0.0
173
     0
291
     1
 45
0.0
1001
ACAD
1000
AcDbSavedByObjectVersion
1070
     0
  0
VISUALSTYLE
  5
36
102
{ACAD_REACTORS
330
2A
102
}
330
2A
100
AcDbVisualStyle
  2
Brighten
 70
    12
 71
     2
 72
     2
 73
     0
 90
        0
 40
-0.6
 41
-30.0
 62
     5
 63
     7
421
 16777215
 74
     1
 91
        4
 64
     7
 65
   257
 75
     1
175
     1
 42
1.0
 92
        8
 66
     7
 43
1.0
 76
     1
 77
     6
 78
     2
 67
     7
 79
     5
170
     0
171
     0
290
     0
174
     0
 93
        1
 44
50.0
173
     0
291
     1
 45
0.0
1001
ACAD
1000
AcDbSavedByObjectVersion
1070
     0
  0
VISUALSTYLE
  5
3A
102
{ACAD_REACTORS
330
2A
102
}
330
2A
100
AcDbVisualStyle
  2
ColorChange
 70
    16
 71
     2
 72
     2
 73
     3
 90
        0
 40
-0.6
 41
-30.0
 62
     5
 63
     8
421
  8421504
 74
     1
 91
        4
 64
     7
 65
   257
 75
     1
175
     1
 42
1.0
 92
        8
 66
     8
424
  8421504
 43
1.0
 76
     1
 77
     6
 78
     2
 67
     7
 79
     5
170
     0
171
     0
290
     0
174
     0
 93
        1
 44
0.0
173
     0
291
     1
 45
0.0
1001
ACAD
1000
AcDbSavedByObjectVersion
1070
     0
  0
VISUALSTYLE
  5
34
102
{ACAD_REACTORS
330
2A
102
}
330
2A
100
AcDbVisualStyle
  2
Conceptual
 70
     9
 71
     3
 72
     2
 73
     0
 90
        0
 40
-0.6
 41
-30.0
 62
     5
 63
     7
421
 16777215
 74
     2
 91
        2
 64
     7
 65
   257
 75
     1
175
     1
 42
40.0
 92
        8
 66
     7
 43
1.0
 76
     1
 77
     6
 78
     2
 67
     7
 79
     3
170
     0
171
     0
290
     0
174
     0
 93
        1
 44
0.0
173
     0
291
     0
 45
0.0
1001
ACAD
1000
AcDbSavedByObjectVersion
1070
     0
  0
VISUALSTYLE
  5
35
102
{ACAD_REACTORS
330
2A
102
}
330
2A
100
AcDbVisualStyle
  2
Dim
 70
    11
 71
     2
 72
     2
 73
     0
 90
        0
 40
-0.6
 41
-30.0
 62
     5
 63
     7
421
 16777215
 74
     1
 91
        4
 64
     7
 65
   257
 75
     1
175
     1
 42
1.0
 92
        8
 66
     7
 43
1.0
 76
     1
 77
     6
 78
     2
 67
     7
 79
     5
170
     0
171
     0
290
     0
174
     0
 93
        1
 44
-50.0
173
     0
291
     1
 45
0.0
1001
ACAD
1000
AcDbSavedByObjectVersion
1070
     0
  0
VISUALSTYLE
  5
39
102
{ACAD_REACTORS
330
2A
102
}
330
2A
100
AcDbVisualStyle
  2
Facepattern
 70
    15
 71
     2
 72
     2
 73
     0
 90
        0
 40
-0.6
 41
-30.0
 62
     5
 63
     7
421
 16777215
 74
     1
 91
        4
 64
     7
 65
   257
 75
     1
175
     1
 42
1.0
 92
        8
 66
     7
 43
1.0
 76
     1
 77
     6
 78
     2
 67
     7
 79
     5
170
     0
171
     0
290
     0
174
     0
 93
        1
 44
0.0
173
     0
291
     1
 45
0.0
1001
ACAD
1000
AcDbSavedByObjectVersion
1070
     0
  0
VISUALSTYLE
  5
2B
102
{ACAD_REACTORS
330
2A
102
}
330
2A
100
AcDbVisualStyle
  2
Flat
 70
     0
 71
     2
 72
     1
 73
     1
 90
        2
 40
-0.6
 41
30.0
 62
     5
 63
     7
421
 16777215
 74
     0
 91
        4
 64
     7
 65
   257
 75
     1
175
     1
 42
1.0
 92
        8
 66
     7
 43
1.0
 76
     1
 77
     6
 78
     2
 67
     7
 79
     5
170
     0
171
     0
290
     0
174
     0
 93
       13
 44
0.0
173
     0
291
     1
 45
0.0
1001
ACAD
1000
AcDbSavedByObjectVersion
1070
     0
  0
VISUALSTYLE
  5
2C
102
{ACAD_REACTORS
330
2A
102
}
330
2A
100
AcDbVisualStyle
  2
FlatWithEdges
 70
     1
 71
     2
 72
     1
 73
     1
 90
        2
 40
-0.6
 41
30.0
 62
     5
 63
     7
421
 16777215
 74
     1
 91
        4
 64
     7
 65
   257
 75
     1
175
     1
 42
1.0
 92
        0
 66
   257
 43
1.0
 76
     1
 77
     6
 78
     2
 67
     7
 79
     5
170
     0
171
     0
290
     0
174
     0
 93
       13
 44
0.0
173
     0
291
     1
 45
0.0
1001
ACAD
1000
AcDbSavedByObjectVersion
1070
     0
  0
VISUALSTYLE
  5
2D
102
{ACAD_REACTORS
330
2A
102
}
330
2A
100
AcDbVisualStyle
  2
Gouraud
 70
     2
 71
     2
 72
     2
 73
     1
 90
        2
 40
-0.6
 41
30.0
 62
     5
 63
     7
421
 16777215
 74
     0
 91
        4
 64
     7
 65
   257
 75
     1
175
     1
 42
1.0
 92
        0
 66
     7
 43
1.0
 76
     1
 77
     6
 78
     2
 67
     7
 79
     5
170
     0
171
     0
290
     0
174
     0
 93
       13
 44
0.0
173
     0
291
     1
 45
0.0
1001
ACAD
1000
AcDbSavedByObjectVersion
1070
     0
  0
VISUALSTYLE
  5
2E
102
{ACAD_REACTORS
330
2A
102
}
330
2A
100
AcDbVisualStyle
  2
GouraudWithEdges
 70
     3
 71
     2
 72
     2
 73
     1
 90
        2
 40
-0.6
 41
30.0
 62
     5
 63
     7
421
 16777215
 74
     1
 91
        4
 64
     7
 65
   257
 75
     1
175
     1
 42
1.0
 92
        0
 66
   257
 43
1.0
 76
     1
 77
     6
 78
     2
 67
     7
 79
     5
170
     0
171
     0
290
     0
174
     0
 93
       13
 44
0.0
173
     0
291
     1
 45
0.0
1001
ACAD
1000
AcDbSavedByObjectVersion
1070
     0
  0
VISUALSTYLE
  5
38
102
{ACAD_REACTORS
330
2A
102
}
330
2A
100
AcDbVisualStyle
  2
Linepattern
 70
    14
 71
     2
 72
     2
 73
     0
 90
        0
 40
-0.6
 41
-30.0
 62
     5
 63
     7
421
 16777215
 74
     1
 91
        4
 64
     7
 65
   257
 75
     7
175
     7
 42
1.0
 92
        8
 66
     7
 43
1.0
 76
     1
 77
     6
 78
     2
 67
     7
 79
     5
170
     0
171
     0
290
     0
174
     0
 93
        1
 44
0.0
173
     0
291
     1
 45
0.0
1001
ACAD
1000
AcDbSavedByObjectVersion
1070
     0
  0
VISUALSTYLE
  5
33
102
{ACAD_REACTORS
330
2A
102
}
330
2A
100
AcDbVisualStyle
  2
Realistic
 70
     8
 71
     2
 72
     2
 73
     0
 90
        0
 40
-0.6
 41
-30.0
 62
     5
 63
     7
421
 16777215
 74
     1
 91
        0
 64
     7
 65
   257
 75
     1
175
     1
 42
1.0
 92
        8
 66
     8
424
  7895160
 43
1.0
 76
     1
 77
     6
 78
     2
 67
     7
 79
     5
170
     0
171
     0
290
     0
174
     0
 93
       13
 44
0.0
173
     0
291
     0
 45
0.0
1001
ACAD
1000
AcDbSavedByObjectVersion
1070
     0
  0
VISUALSTYLE
  5
37
102
{ACAD_REACTORS
330
2A
102
}
330
2A
100
AcDbVisualStyle
  2
Thicken
 70
    13
 71
     2
 72
     2
 73
     0
 90
        0
 40
-0.6
 41
-30.0
 62
     5
 63
     7
421
 16777215
 74
     1
 91
        4
 64
     7
 65
   257
 75
     1
175
     1
 42
1.0
 92
       12
 66
     7
 43
1.0
 76
     1
 77
     6
 78
     2
 67
     7
 79
     5
170
     0
171
     0
290
     0
174
     0
 93
        1
 44
0.0
173
     0
291
     1
 45
0.0
1001
ACAD
1000
AcDbSavedByObjectVersion
1070
     0
  0
DICTIONARYVAR
  5
104
102
{ACAD_REACTORS
330
103
102
}
330
103
100
DictionaryVariables
280
     0
  1
1:1
  0
XRECORD
  5
102
102
{ACAD_REACTORS
330
101
102
}
330
101
100
AcDbXrecord
280
     1
1000
This DWG file was created in ArchiCAD(TM)®
  0
ENDSEC
  0
EOF
