  0
SECTION
  2
HEADER
  9
$ACADVER
  1
AC1015
  9
$ACADMAINTVER
 70
     6
  9
$DWGCODEPAGE
  3
ANSI_1252
  9
$INSBASE
 10
0.0
 20
0.0
 30
0.0
  9
$EXTMIN
 10
1.000000000000000E+20
 20
1.000000000000000E+20
 30
1.000000000000000E+20
  9
$EXTMAX
 10
-1.000000000000000E+20
 20
-1.000000000000000E+20
 30
-1.000000000000000E+20
  9
$LIMMIN
 10
0.0
 20
0.0
  9
$LIMMAX
 10
12.0
 20
9.0
  9
$ORTHOMODE
 70
     0
  9
$REGENMODE
 70
     1
  9
$FILLMODE
 70
     1
  9
$QTEXTMODE
 70
     0
  9
$MIRRTEXT
 70
     1
  9
$LTSCALE
 40
1.0
  9
$ATTMODE
 70
     1
  9
$TEXTSIZE
 40
0.2
  9
$TRACEWID
 40
0.05
  9
$TEXTSTYLE
  7
Standard
  9
$CLAYER
  8
0
  9
$CELTYPE
  6
ByLayer
  9
$CECOLOR
 62
   256
  9
$CELTSCALE
 40
1.0
  9
$DISPSILH
 70
     0
  9
$DIMSCALE
 40
1.0
  9
$DIMASZ
 40
0.18
  9
$DIMEXO
 40
0.0625
  9
$DIMDLI
 40
0.38
  9
$DIMRND
 40
0.0
  9
$DIMDLE
 40
0.0
  9
$DIMEXE
 40
0.18
  9
$DIMTP
 40
0.0
  9
$DIMTM
 40
0.0
  9
$DIMTXT
 40
0.18
  9
$DIMCEN
 40
0.09
  9
$DIMTSZ
 40
0.0
  9
$DIMTOL
 70
     0
  9
$DIMLIM
 70
     0
  9
$DIMTIH
 70
     1
  9
$DIMTOH
 70
     1
  9
$DIMSE1
 70
     0
  9
$DIMSE2
 70
     0
  9
$DIMTAD
 70
     0
  9
$DIMZIN
 70
     0
  9
$DIMBLK
  1

  9
$DIMASO
 70
     1
  9
$DIMSHO
 70
     1
  9
$DIMPOST
  1

  9
$DIMAPOST
  1

  9
$DIMALT
 70
     0
  9
$DIMALTD
 70
     2
  9
$DIMALTF
 40
25.4
  9
$DIMLFAC
 40
1.0
  9
$DIMTOFL
 70
     0
  9
$DIMTVP
 40
0.0
  9
$DIMTIX
 70
     0
  9
$DIMSOXD
 70
     0
  9
$DIMSAH
 70
     0
  9
$DIMBLK1
  1

  9
$DIMBLK2
  1

  9
$DIMSTYLE
  2
Standard
  9
$DIMCLRD
 70
     0
  9
$DIMCLRE
 70
     0
  9
$DIMCLRT
 70
     0
  9
$DIMTFAC
 40
1.0
  9
$DIMGAP
 40
0.09
  9
$DIMJUST
 70
     0
  9
$DIMSD1
 70
     0
  9
$DIMSD2
 70
     0
  9
$DIMTOLJ
 70
     1
  9
$DIMTZIN
 70
     0
  9
$DIMALTZ
 70
     0
  9
$DIMALTTZ
 70
     0
  9
$DIMUPT
 70
     0
  9
$DIMDEC
 70
     4
  9
$DIMTDEC
 70
     4
  9
$DIMALTU
 70
     2
  9
$DIMALTTD
 70
     2
  9
$DIMTXSTY
  7
Standard
  9
$DIMAUNIT
 70
     0
  9
$DIMADEC
 70
     0
  9
$DIMALTRND
 40
0.0
  9
$DIMAZIN
 70
     0
  9
$DIMDSEP
 70
    46
  9
$DIMATFIT
 70
     3
  9
$DIMFRAC
 70
     0
  9
$DIMLDRBLK
  1

  9
$DIMLUNIT
 70
     2
  9
$DIMLWD
 70
    -2
  9
$DIMLWE
 70
    -2
  9
$DIMTMOVE
 70
     0
  9
$LUNITS
 70
     2
  9
$LUPREC
 70
     4
  9
$SKETCHINC
 40
0.1
  9
$FILLETRAD
 40
0.5
  9
$AUNITS
 70
     0
  9
$AUPREC
 70
     0
  9
$MENU
  1
.
  9
$ELEVATION
 40
0.0
  9
$PELEVATION
 40
0.0
  9
$THICKNESS
 40
0.0
  9
$LIMCHECK
 70
     0
  9
$CHAMFERA
 40
0.5
  9
$CHAMFERB
 40
0.5
  9
$CHAMFERC
 40
1.0
  9
$CHAMFERD
 40
0.0
  9
$SKPOLY
 70
     0
  9
$TDCREATE
 40
2456111.508734167
  9
$TDUCREATE
 40
2456111.008734167
  9
$TDUPDATE
 40
2456111.508734178
  9
$TDUUPDATE
 40
2456111.008734178
  9
$TDINDWG
 40
0.0000000116
  9
$TDUSRTIMER
 40
0.0000000116
  9
$USRTIMER
 70
     1
  9
$ANGBASE
 50
0.0
  9
$ANGDIR
 70
     0
  9
$PDMODE
 70
     0
  9
$PDSIZE
 40
0.0
  9
$PLINEWID
 40
0.0
  9
$SPLFRAME
 70
     0
  9
$SPLINETYPE
 70
     6
  9
$SPLINESEGS
 70
     8
  9
$HANDSEED
  5
DE
  9
$SURFTAB1
 70
     6
  9
$SURFTAB2
 70
     6
  9
$SURFTYPE
 70
     6
  9
$SURFU
 70
     6
  9
$SURFV
 70
     6
  9
$UCSBASE
  2

  9
$UCSNAME
  2

  9
$UCSORG
 10
0.0
 20
0.0
 30
0.0
  9
$UCSXDIR
 10
1.0
 20
0.0
 30
0.0
  9
$UCSYDIR
 10
0.0
 20
1.0
 30
0.0
  9
$UCSORTHOREF
  2

  9
$UCSORTHOVIEW
 70
     0
  9
$UCSORGTOP
 10
0.0
 20
0.0
 30
0.0
  9
$UCSORGBOTTOM
 10
0.0
 20
0.0
 30
0.0
  9
$UCSORGLEFT
 10
0.0
 20
0.0
 30
0.0
  9
$UCSORGRIGHT
 10
0.0
 20
0.0
 30
0.0
  9
$UCSORGFRONT
 10
0.0
 20
0.0
 30
0.0
  9
$UCSORGBACK
 10
0.0
 20
0.0
 30
0.0
  9
$PUCSBASE
  2

  9
$PUCSNAME
  2

  9
$PUCSORG
 10
0.0
 20
0.0
 30
0.0
  9
$PUCSXDIR
 10
1.0
 20
0.0
 30
0.0
  9
$PUCSYDIR
 10
0.0
 20
1.0
 30
0.0
  9
$PUCSORTHOREF
  2

  9
$PUCSORTHOVIEW
 70
     0
  9
$PUCSORGTOP
 10
0.0
 20
0.0
 30
0.0
  9
$PUCSORGBOTTOM
 10
0.0
 20
0.0
 30
0.0
  9
$PUCSORGLEFT
 10
0.0
 20
0.0
 30
0.0
  9
$PUCSORGRIGHT
 10
0.0
 20
0.0
 30
0.0
  9
$PUCSORGFRONT
 10
0.0
 20
0.0
 30
0.0
  9
$PUCSORGBACK
 10
0.0
 20
0.0
 30
0.0
  9
$USERI1
 70
     0
  9
$USERI2
 70
     0
  9
$USERI3
 70
     0
  9
$USERI4
 70
     0
  9
$USERI5
 70
     0
  9
$USERR1
 40
0.0
  9
$USERR2
 40
0.0
  9
$USERR3
 40
0.0
  9
$USERR4
 40
0.0
  9
$USERR5
 40
0.0
  9
$WORLDVIEW
 70
     1
  9
$SHADEDGE
 70
     3
  9
$SHADEDIF
 70
    70
  9
$TILEMODE
 70
     1
  9
$MAXACTVP
 70
    64
  9
$PINSBASE
 10
0.0
 20
0.0
 30
0.0
  9
$PLIMCHECK
 70
     0
  9
$PEXTMIN
 10
1.000000000000000E+20
 20
1.000000000000000E+20
 30
1.000000000000000E+20
  9
$PEXTMAX
 10
-1.000000000000000E+20
 20
-1.000000000000000E+20
 30
-1.000000000000000E+20
  9
$PLIMMIN
 10
0.0
 20
0.0
  9
$PLIMMAX
 10
12.0
 20
9.0
  9
$UNITMODE
 70
     0
  9
$VISRETAIN
 70
     1
  9
$PLINEGEN
 70
     0
  9
$PSLTSCALE
 70
     1
  9
$TREEDEPTH
 70
  3020
  9
$CMLSTYLE
  2
Standard
  9
$CMLJUST
 70
     0
  9
$CMLSCALE
 40
1.0
  9
$PROXYGRAPHICS
 70
     1
  9
$MEASUREMENT
 70
     0
  9
$CELWEIGHT
370
    -1
  9
$ENDCAPS
280
     0
  9
$JOINSTYLE
280
     0
  9
$LWDISPLAY
290
     1
  9
$INSUNITS
 70
     0
  9
$HYPERLINKBASE
  1

  9
$STYLESHEET
  1

  9
$XEDIT
290
     1
  9
$CEPSNTYPE
380
     0
  9
$PSTYLEMODE
290
     1
  9
$FINGERPRINTGUID
  2
{E2A18184-E94A-4A37-AD7B-3C86683458A3}
  9
$VERSIONGUID
  2
{FAEB1C32-E019-11D5-929B-00C0DF256EC4}
  9
$EXTNAMES
290
     1
  9
$PSVPSCALE
 40
0.0
  9
$OLESTARTUP
290
     0
  0
ENDSEC
  0
SECTION
  2
CLASSES
  0
CLASS
  1
ACDBDICTIONARYWDFLT
  2
AcDbDictionaryWithDefault
  3
ObjectDBX Classes
 90
        0
280
     0
281
     0
  0
CLASS
  1
VISUALSTYLE
  2
AcDbVisualStyle
  3
ObjectDBX Classes
 90
     4095
280
     0
281
     0
  0
CLASS
  1
SCALE
  2
AcDbScale
  3
ObjectDBX Classes
 90
     1153
280
     0
281
     0
  0
CLASS
  1
DICTIONARYVAR
  2
AcDbDictionaryVar
  3
ObjectDBX Classes
 90
        0
280
     0
281
     0
  0
CLASS
  1
ACDBPLACEHOLDER
  2
AcDbPlaceHolder
  3
ObjectDBX Classes
 90
        0
280
     0
281
     0
  0
CLASS
  1
LAYOUT
  2
AcDbLayout
  3
ObjectDBX Classes
 90
        0
280
     0
281
     0
  0
ENDSEC
  0
SECTION
  2
TABLES
  0
TABLE
  2
VPORT
  5
8
330
0
100
AcDbSymbolTable
 70
     1
  0
VPORT
  5
29
330
8
100
AcDbSymbolTableRecord
100
AcDbViewportTableRecord
  2
*Active
 70
     0
 10
0.0
 20
0.0
 11
1.0
 21
1.0
 12
24.46316056685225
 22
-95.02812395472245
 13
0.0
 23
0.0
 14
0.5
 24
0.5
 15
0.5
 25
0.5
 16
0.0
 26
0.0
 36
1.0
 17
0.0
 27
0.0
 37
0.0
 40
408.3302944121064
 41
1.520484185497366
 42
50.0
 43
0.0
 44
0.0
 50
0.0
 51
0.0
 71
     0
 72
   100
 73
     1
 74
     3
 75
     0
 76
     0
 77
     0
 78
     0
281
     0
 65
     1
110
0.0
120
0.0
130
0.0
111
1.0
121
0.0
131
0.0
112
0.0
122
1.0
132
0.0
 79
     0
146
0.0
  0
ENDTAB
  0
TABLE
  2
LTYPE
  5
5
330
0
100
AcDbSymbolTable
 70
     4
  0
LTYPE
  5
14
330
5
100
AcDbSymbolTableRecord
100
AcDbLinetypeTableRecord
  2
ByBlock
 70
     0
  3

 72
    65
 73
     0
 40
0.0
  0
LTYPE
  5
15
330
5
100
AcDbSymbolTableRecord
100
AcDbLinetypeTableRecord
  2
ByLayer
 70
     0
  3

 72
    65
 73
     0
 40
0.0
  0
LTYPE
  5
16
330
5
100
AcDbSymbolTableRecord
100
AcDbLinetypeTableRecord
  2
Continuous
 70
     0
  3
Solid line
 72
    65
 73
     0
 40
0.0
  0
LTYPE
  5
67
330
5
100
AcDbSymbolTableRecord
100
AcDbLinetypeTableRecord
  2
DASHEDX2
 70
     0
  3
- - - - - 
 72
    65
 73
     2
 40
7.5
 49
5.0
 74
     0
 49
-2.5
 74
     0
  0
LTYPE
  5
84
330
5
100
AcDbSymbolTableRecord
100
AcDbLinetypeTableRecord
  2
Hidden
 70
     0
  3
- - - - - 
 72
    65
 73
     2
 40
246.9444990158081
 49
141.1111354827881
 74
     0
 49
-105.83336353302
 74
     0
  0
LTYPE
  5
97
330
5
100
AcDbSymbolTableRecord
100
AcDbLinetypeTableRecord
  2
Dashed
 70
     0
  3
- - - - - 
 72
    65
 73
     2
 40
564.4444465637207
 49
282.2222232818604
 74
     0
 49
-282.2222232818603
 74
     0
  0
ENDTAB
  0
TABLE
  2
LAYER
  5
2
330
0
100
AcDbSymbolTable
 70
    14
  0
LAYER
  5
10
330
2
100
AcDbSymbolTableRecord
100
AcDbLayerTableRecord
  2
0
 70
     0
 62
     7
  6
Continuous
370
    -3
390
F
  0
LAYER
  5
3C
330
2
100
AcDbSymbolTableRecord
100
AcDbLayerTableRecord
  2
chh-08_Pen_No__8_Pen_No__81
 70
     0
 62
     7
  6
Continuous
370
    -3
390
F
  0
LAYER
  5
3E
330
2
100
AcDbSymbolTableRecord
100
AcDbLayerTableRecord
  2
chh-08_Pen_No__8_Pen_No__101
 70
     0
 62
     7
  6
Continuous
370
    -3
390
F
  0
LAYER
  5
40
330
2
100
AcDbSymbolTableRecord
100
AcDbLayerTableRecord
  2
chh-08_Pen_No__8_Pen_No__250
 70
     0
 62
     7
  6
Continuous
370
    -3
390
F
  0
LAYER
  5
44
330
2
100
AcDbSymbolTableRecord
100
AcDbLayerTableRecord
  2
chh-09_Pen_No__9_Pen_No__2
 70
     0
 62
     7
  6
Continuous
370
    -3
390
F
  0
LAYER
  5
50
330
2
100
AcDbSymbolTableRecord
100
AcDbLayerTableRecord
  2
chh-08_Pen_No__8_Pen_No__1
 70
     0
 62
     7
  6
Continuous
370
    -3
390
F
  0
LAYER
  5
56
330
2
100
AcDbSymbolTableRecord
100
AcDbLayerTableRecord
  2
chh-07_Pen_No__7_Pen_No__7
 70
     0
 62
     7
  6
Continuous
370
    -3
390
F
  0
LAYER
  5
5A
330
2
100
AcDbSymbolTableRecord
100
AcDbLayerTableRecord
  2
chh-txt_Pen_No__7_Pen_No__7
 70
     0
 62
     7
  6
Continuous
370
    -3
390
F
  0
LAYER
  5
5C
330
2
100
AcDbSymbolTableRecord
100
AcDbLayerTableRecord
  2
chh-txt_Pen_No__7_Pen_No__1
 70
     0
 62
     7
  6
Continuous
370
    -3
390
F
  0
LAYER
  5
6C
330
2
100
AcDbSymbolTableRecord
100
AcDbLayerTableRecord
  2
chh-08_Pen_No__8_Pen_No__7
 70
     0
 62
     7
  6
Continuous
370
    -3
390
F
  0
LAYER
  5
7A
330
2
100
AcDbSymbolTableRecord
100
AcDbLayerTableRecord
  2
chh-06_Pen_No__7_Pen_No__7
 70
     0
 62
     7
  6
Continuous
370
    -3
390
F
  0
LAYER
  5
7D
330
2
100
AcDbSymbolTableRecord
100
AcDbLayerTableRecord
  2
chh-05_Pen_No__7_Pen_No__7
 70
     0
 62
     7
  6
Continuous
370
    -3
390
F
  0
LAYER
  5
8A
330
2
100
AcDbSymbolTableRecord
100
AcDbLayerTableRecord
  2
chh-09_Pen_No__9_Pen_No__1
 70
     0
 62
     7
  6
Continuous
370
    -3
390
F
  0
LAYER
  5
C6
330
2
100
AcDbSymbolTableRecord
100
AcDbLayerTableRecord
  2
Defpoints_Pen_No__211_Pen_No__115
 70
     0
 62
     7
  6
Continuous
370
    -3
390
F
  0
ENDTAB
  0
TABLE
  2
STYLE
  5
3
330
0
100
AcDbSymbolTable
 70
     2
  0
STYLE
  5
11
330
3
100
AcDbSymbolTableRecord
100
AcDbTextStyleTableRecord
  2
Standard
 70
     0
 40
0.0
 41
1.0
 50
0.0
 71
     0
 42
0.2
  3
txt
  4
BIGFONT.SHX
  0
STYLE
  5
A0
330
3
100
AcDbSymbolTableRecord
100
AcDbTextStyleTableRecord
  2
GENERATED_STYLE_1
 70
     0
 40
0.0
 41
1.0
 50
0.0
 71
     0
 42
0.2
  3

  4

1001
ACAD
1000
Arial Unicode MS
1071
       34
  0
ENDTAB
  0
TABLE
  2
VIEW
  5
6
330
0
100
AcDbSymbolTable
 70
     0
  0
ENDTAB
  0
TABLE
  2
UCS
  5
7
330
0
100
AcDbSymbolTable
 70
     0
  0
ENDTAB
  0
TABLE
  2
APPID
  5
9
330
0
100
AcDbSymbolTable
 70
     1
  0
APPID
  5
12
330
9
100
AcDbSymbolTableRecord
100
AcDbRegAppTableRecord
  2
ACAD
 70
     0
  0
ENDTAB
  0
TABLE
  2
DIMSTYLE
  5
A
330
0
100
AcDbSymbolTable
 70
     1
100
AcDbDimStyleTable
  0
DIMSTYLE
105
27
330
A
100
AcDbSymbolTableRecord
100
AcDbDimStyleTableRecord
  2
Standard
 70
     0
340
11
  0
ENDTAB
  0
TABLE
  2
BLOCK_RECORD
  5
1
330
0
100
AcDbSymbolTable
 70
     2
  0
BLOCK_RECORD
  5
1F
330
1
100
AcDbSymbolTableRecord
100
AcDbBlockTableRecord
  2
*Model_Space
340
22
  0
BLOCK_RECORD
  5
1B
330
1
100
AcDbSymbolTableRecord
100
AcDbBlockTableRecord
  2
*Paper_Space
340
1E
  0
BLOCK_RECORD
  5
23
330
1
100
AcDbSymbolTableRecord
100
AcDbBlockTableRecord
  2
*Paper_Space0
340
26
  0
BLOCK_RECORD
  5
D5
330
1
100
AcDbSymbolTableRecord
100
AcDbBlockTableRecord
  2
Untitled _STORY_MARKER
340
0
  0
ENDTAB
  0
ENDSEC
  0
SECTION
  2
BLOCKS
  0
BLOCK
  5
20
330
1F
100
AcDbEntity
  8
0
100
AcDbBlockBegin
  2
*Model_Space
 70
     0
 10
0.0
 20
0.0
 30
0.0
  3
*Model_Space
  1

  0
ENDBLK
  5
21
330
1F
100
AcDbEntity
  8
0
100
AcDbBlockEnd
  0
BLOCK
  5
1C
330
1B
100
AcDbEntity
 67
     1
  8
0
100
AcDbBlockBegin
  2
*Paper_Space
 70
     0
 10
0.0
 20
0.0
 30
0.0
  3
*Paper_Space
  1

  0
ENDBLK
  5
1D
330
1B
100
AcDbEntity
 67
     1
  8
0
100
AcDbBlockEnd
  0
BLOCK
  5
24
330
23
100
AcDbEntity
  8
0
100
AcDbBlockBegin
  2
*Paper_Space0
 70
     0
 10
0.0
 20
0.0
 30
0.0
  3
*Paper_Space0
  1

  0
ENDBLK
  5
25
330
23
100
AcDbEntity
  8
0
100
AcDbBlockEnd
  0
BLOCK
  5
D6
330
D5
100
AcDbEntity
  8
0
100
AcDbBlockBegin
  2
Untitled _STORY_MARKER
 70
     0
 10
0.0
 20
0.0
 30
0.0
  3
Untitled _STORY_MARKER
  1

  0
ENDBLK
  5
D7
330
D5
100
AcDbEntity
  8
0
100
AcDbBlockEnd
  0
ENDSEC
  0
SECTION
  2
ENTITIES
  0
HATCH
  5
3B
330
1F
100
AcDbEntity
  8
chh-08_Pen_No__8_Pen_No__81
  6
Continuous
 62
   251
370
    18
100
AcDbHatch
 10
0.0
 20
0.0
 30
0.0
210
0.0
220
0.0
230
1.0
  2
SOLID
 70
     1
 71
     0
 91
        1
 92
        2
 72
     0
 73
     1
 93
        4
 10
139.5696215696138
 20
-89.91659786531459
 10
139.5696215696138
 20
-77.91659786531413
 10
-125.6881602758551
 20
-77.91659786531413
 10
-125.6881602758551
 20
-89.91659786531459
 97
        0
 75
     0
 76
     1
 98
        0
  0
HATCH
  5
3D
330
1F
100
AcDbEntity
  8
chh-08_Pen_No__8_Pen_No__101
  6
Continuous
 62
   252
370
    18
100
AcDbHatch
 10
0.0
 20
0.0
 30
0.0
210
0.0
220
0.0
230
1.0
  2
SOLID
 70
     1
 71
     0
 91
        1
 92
        2
 72
     0
 73
     1
 93
        4
 10
139.5696215696138
 20
28.0834021346853
 10
-136.8102570336495
 20
28.08340213468486
 10
-136.8102570336495
 20
18.08340213468463
 10
139.5696215696138
 20
18.08340213468507
 97
        0
 75
     0
 76
     1
 98
        0
  0
HATCH
  5
3F
330
1F
100
AcDbEntity
  8
chh-08_Pen_No__8_Pen_No__250
  6
Continuous
 62
   254
370
    18
100
AcDbHatch
 10
0.0
 20
0.0
 30
0.0
210
0.0
220
0.0
230
1.0
  2
SOLID
 70
     1
 71
     0
 91
        1
 92
        2
 72
     1
 73
     1
 93
        5
 10
-108.0156571347793
 20
-89.91659786531459
 42
0.0
 10
-112.3941804458864
 20
-89.91659786531459
 42
-0.4579535085884527
 10
-112.3941804458817
 20
-94.2568354452441
 42
-0.1707897386261729
 10
-110.5156673423505
 20
-93.59589485617758
 42
0.0
 10
-108.0156571347788
 20
-93.59589485617892
 42
-0.3740709776173953
 97
        0
 75
     0
 76
     1
 98
        0
  0
HATCH
  5
41
330
1F
100
AcDbEntity
  8
chh-08_Pen_No__8_Pen_No__81
  6
Continuous
 62
   251
370
    18
100
AcDbHatch
 10
0.0
 20
0.0
 30
0.0
210
0.0
220
0.0
230
1.0
  2
SOLID
 70
     1
 71
     0
 91
        1
 92
        2
 72
     0
 73
     1
 93
        8
 10
-127.9938819113648
 20
16.68482092503176
 10
-136.8102570336495
 20
16.68482092503176
 10
-136.8102570336495
 20
29.48198334433771
 10
-127.7840923635078
 20
29.48198334433771
 10
-127.7840923635078
 20
41.43998757221345
 10
-147.4939395411634
 20
41.43998757221345
 10
-147.4939395411634
 20
-43.59589711863154
 10
-127.9938819113648
 20
-43.59589711863154
 97
        0
 75
     0
 76
     1
 98
        0
  0
HATCH
  5
42
330
1F
100
AcDbEntity
  8
chh-08_Pen_No__8_Pen_No__250
  6
Continuous
 62
   254
370
    18
100
AcDbHatch
 10
0.0
 20
0.0
 30
0.0
210
0.0
220
0.0
230
1.0
  2
SOLID
 70
     1
 71
     0
 91
        1
 92
        2
 72
     0
 73
     1
 93
        4
 10
-113.0476144784897
 20
-97.3009257730155
 10
-111.5893330247543
 20
-89.9063221828855
 10
-119.6177467450523
 20
-89.9063221828855
 10
-119.6177467450523
 20
-97.3009257730155
 97
        0
 75
     0
 76
     1
 98
        0
  0
HATCH
  5
43
330
1F
100
AcDbEntity
  8
chh-09_Pen_No__9_Pen_No__2
  6
Continuous
 62
   251
370
    18
100
AcDbHatch
 10
0.0
 20
0.0
 30
0.0
210
0.0
220
0.0
230
1.0
  2
SOLID
 70
     1
 71
     0
 91
        1
 92
        2
 72
     0
 73
     1
 93
        3
 10
-115.7773246610332
 20
42.2836927323439
 10
-117.7572227981636
 20
44.26359086947473
 10
-122.7069681409902
 20
37.33394738952012
 97
        0
 75
     0
 76
     1
 98
        0
  0
HATCH
  5
45
330
1F
100
AcDbEntity
  8
chh-09_Pen_No__9_Pen_No__2
  6
Continuous
 62
   251
370
    18
100
AcDbHatch
 10
0.0
 20
0.0
 30
0.0
210
0.0
220
0.0
230
1.0
  2
SOLID
 70
     1
 71
     0
 91
        1
 92
        2
 72
     0
 73
     1
 93
        3
 10
-119.0471316045995
 20
17.56832573753087
 10
-121.0270297417301
 20
19.5482238746626
 10
-125.9767750845568
 20
12.6185803947071
 97
        0
 75
     0
 76
     1
 98
        0
  0
HATCH
  5
46
330
1F
100
AcDbEntity
  8
chh-09_Pen_No__9_Pen_No__2
  6
Continuous
 62
   251
370
    18
100
AcDbHatch
 10
0.0
 20
0.0
 30
0.0
210
0.0
220
0.0
230
1.0
  2
SOLID
 70
     1
 71
     0
 91
        1
 92
        2
 72
     0
 73
     1
 93
        3
 10
26.25729437892366
 20
-67.5074713622118
 10
23.45729558127641
 20
-67.50747136221136
 10
24.85729498009825
 20
-75.90746775515179
 97
        0
 75
     0
 76
     1
 98
        0
  0
HATCH
  5
47
330
1F
100
AcDbEntity
  8
chh-09_Pen_No__9_Pen_No__2
  6
Continuous
 62
   251
370
    18
100
AcDbHatch
 10
0.0
 20
0.0
 30
0.0
210
0.0
220
0.0
230
1.0
  2
SOLID
 70
     1
 71
     0
 91
        1
 92
        2
 72
     0
 73
     1
 93
        3
 10
-67.35862352885988
 20
-108.3207956814806
 10
-67.35862352885943
 20
-105.5207968838333
 10
-75.7586199218003
 20
-106.9207962826545
 97
        0
 75
     0
 76
     1
 98
        0
  0
HATCH
  5
48
330
1F
100
AcDbEntity
  8
chh-09_Pen_No__9_Pen_No__2
  6
Continuous
 62
   251
370
    18
100
AcDbHatch
 10
0.0
 20
0.0
 30
0.0
210
0.0
220
0.0
230
1.0
  2
SOLID
 70
     1
 71
     0
 91
        1
 92
        2
 72
     0
 73
     1
 93
        3
 10
-103.8566762298173
 20
-103.8499669003056
 10
-101.8767780926862
 20
-101.8700687631752
 10
-108.8064215726411
 20
-96.92032342034835
 97
        0
 75
     0
 76
     1
 98
        0
  0
HATCH
  5
49
330
1F
100
AcDbEntity
  8
chh-09_Pen_No__9_Pen_No__2
  6
Continuous
 62
   251
370
    18
100
AcDbHatch
 10
0.0
 20
0.0
 30
0.0
210
0.0
220
0.0
230
1.0
  2
SOLID
 70
     1
 71
     0
 91
        1
 92
        2
 72
     0
 73
     1
 93
        3
 10
64.5658312410703
 20
27.25735023638195
 10
61.76583244342304
 20
27.2573502363824
 10
63.16583184224489
 20
18.85735384344197
 97
        0
 75
     0
 76
     1
 98
        0
  0
HATCH
  5
4A
330
1F
100
AcDbEntity
  8
chh-09_Pen_No__9_Pen_No__2
  6
Continuous
 62
   251
370
    18
100
AcDbHatch
 10
0.0
 20
0.0
 30
0.0
210
0.0
220
0.0
230
1.0
  2
SOLID
 70
     1
 71
     0
 91
        1
 92
        2
 72
     0
 73
     1
 93
        3
 10
-81.29867928409614
 20
-67.87836600440032
 10
-84.09867808174339
 20
-67.87836600439988
 10
-82.69867868292133
 20
-76.2783623973403
 97
        0
 75
     0
 76
     1
 98
        0
  0
HATCH
  5
4B
330
1F
100
AcDbEntity
  8
chh-09_Pen_No__9_Pen_No__2
  6
Continuous
 62
   251
370
    18
100
AcDbHatch
 10
0.0
 20
0.0
 30
0.0
210
0.0
220
0.0
230
1.0
  2
SOLID
 70
     1
 71
     0
 91
        1
 92
        2
 72
     0
 73
     1
 93
        3
 10
66.50258146028132
 20
-73.49106965454533
 10
63.70258266263406
 20
-73.49106965454489
 10
65.10258206145592
 20
-81.89106604748531
 97
        0
 75
     0
 76
     1
 98
        0
  0
HATCH
  5
4C
330
1F
100
AcDbEntity
  8
chh-09_Pen_No__9_Pen_No__2
  6
Continuous
 62
   251
370
    18
100
AcDbHatch
 10
0.0
 20
0.0
 30
0.0
210
0.0
220
0.0
230
1.0
  2
SOLID
 70
     1
 71
     0
 91
        1
 92
        2
 72
     0
 73
     1
 93
        3
 10
-96.57946630899738
 20
-99.0475270443034
 10
-94.59956817186632
 20
-97.06762890717299
 10
-101.5292116518212
 20
-92.11788356434613
 97
        0
 75
     0
 76
     1
 98
        0
  0
HATCH
  5
4D
330
1F
100
AcDbEntity
  8
chh-09_Pen_No__9_Pen_No__2
  6
Continuous
 62
   251
370
    18
100
AcDbHatch
 10
0.0
 20
0.0
 30
0.0
210
0.0
220
0.0
230
1.0
  2
SOLID
 70
     1
 71
     0
 91
        1
 92
        2
 72
     0
 73
     1
 93
        3
 10
-110.7985870581123
 20
12.48502195002733
 10
-112.778485195243
 20
14.46492008715906
 10
-118.7562506248938
 20
7.535276607203556
 97
        0
 75
     0
 76
     1
 98
        0
  0
LINE
  5
4E
330
1F
100
AcDbEntity
  8
chh-08_Pen_No__8_Pen_No__250
  6
Continuous
 62
   254
370
    18
100
AcDbLine
 10
-60.02407392520492
 20
16.08340213468484
 30
0.0
 11
139.5554545500364
 21
16.08340213468529
 31
0.0
  0
LINE
  5
4F
330
1F
100
AcDbEntity
  8
chh-08_Pen_No__8_Pen_No__1
  6
Continuous
100
AcDbLine
 10
-55.49388191136507
 20
-73.91659786531413
 30
0.0
 11
139.5554545500364
 21
-73.91659786531413
 31
0.0
  0
LINE
  5
51
330
1F
100
AcDbEntity
  8
chh-08_Pen_No__8_Pen_No__81
  6
Continuous
 62
   251
370
    18
100
AcDbLine
 10
-55.49388191136507
 20
-73.91659786531413
 30
0.0
 11
-100.4938819113652
 21
16.08340213468484
 31
0.0
  0
LINE
  5
52
330
1F
100
AcDbEntity
  8
chh-08_Pen_No__8_Pen_No__81
  6
Continuous
 62
   251
370
    18
100
AcDbLine
 10
-55.49388191136507
 20
16.08340213468484
 30
0.0
 11
-100.4938819113652
 21
-73.91659786531413
 31
0.0
  0
LINE
  5
53
330
1F
100
AcDbEntity
  8
chh-08_Pen_No__8_Pen_No__1
  6
Continuous
100
AcDbLine
 10
-147.4939395411634
 20
41.43998757221345
 30
0.0
 11
-270.0662032410086
 21
41.43998757221345
 31
0.0
  0
LINE
  5
54
330
1F
100
AcDbEntity
  8
chh-08_Pen_No__8_Pen_No__81
  6
Continuous
 62
   251
370
    18
100
AcDbLine
 10
-55.49388191136484
 20
16.08340213468484
 30
0.0
 11
-10.49388191136535
 21
-73.91659786531413
 31
0.0
  0
LINE
  5
55
330
1F
100
AcDbEntity
  8
chh-07_Pen_No__7_Pen_No__7
  6
Continuous
100
AcDbLine
 10
-164.592167389677
 20
-69.10858679420639
 30
0.0
 11
-155.4336243208347
 21
-69.10858679420639
 31
0.0
  0
LINE
  5
57
330
1F
100
AcDbEntity
  8
chh-07_Pen_No__7_Pen_No__7
  6
Continuous
100
AcDbLine
 10
-161.2560657902775
 20
-63.10858706570099
 30
0.0
 11
-152.2234133474877
 21
-63.10858706570099
 31
0.0
  0
LINE
  5
58
330
1F
100
AcDbEntity
  8
chh-07_Pen_No__7_Pen_No__7
  6
Continuous
100
AcDbLine
 10
-163.3950330027076
 20
-71.39589586070805
 30
0.0
 11
-164.5507866523818
 21
-69.10858679420639
 31
0.0
  0
LINE
  5
59
330
1F
100
AcDbEntity
  8
chh-txt_Pen_No__7_Pen_No__7
  6
Continuous
100
AcDbLine
 10
-77.30824603144315
 20
-89.91659786531459
 30
0.0
 11
-52.19409359640625
 21
-89.91659786531459
 31
0.0
  0
LINE
  5
5B
330
1F
100
AcDbEntity
  8
chh-txt_Pen_No__7_Pen_No__1
  6
Continuous
100
AcDbLine
 10
-82.41712017995641
 20
-93.75661498571863
 30
0.0
 11
-52.19409359640625
 21
-93.75661498571863
 31
0.0
  0
LINE
  5
5D
330
1F
100
AcDbEntity
  8
chh-txt_Pen_No__7_Pen_No__7
  6
Continuous
100
AcDbLine
 10
-54.6940935964062
 20
-89.91659786531459
 30
0.0
 11
-54.6940935964062
 21
-84.91659786531469
 31
0.0
  0
LINE
  5
5E
330
1F
100
AcDbEntity
  8
chh-txt_Pen_No__7_Pen_No__7
  6
Continuous
100
AcDbLine
 10
-54.6940935964062
 20
-93.75661498571863
 30
0.0
 11
-54.6940935964062
 21
-98.75661498571853
 31
0.0
  0
LINE
  5
5F
330
1F
100
AcDbEntity
  8
chh-txt_Pen_No__7_Pen_No__1
  6
Continuous
100
AcDbLine
 10
-54.6940935964062
 20
-89.91659786531459
 30
0.0
 11
-54.6940935964062
 21
-93.75661498571863
 31
0.0
  0
LINE
  5
60
330
1F
100
AcDbEntity
  8
0
  6
Continuous
100
AcDbLine
 10
-126.2619881507485
 20
16.08340213468485
 30
0.0
 11
-101.6777112875254
 21
-28.16773122832228
 31
0.0
  0
LINE
  5
61
330
1F
100
AcDbEntity
  8
0
  6
Continuous
100
AcDbLine
 10
-126.2619881507485
 20
-28.07476924525781
 30
0.0
 11
-101.6777112875254
 21
-73.91659786531413
 31
0.0
  0
LINE
  5
62
330
1F
100
AcDbEntity
  8
chh-txt_Pen_No__7_Pen_No__1
  6
Continuous
100
AcDbLine
 10
-116.9584812446799
 20
-113.1028601971494
 30
0.0
 11
-116.9584812446799
 21
-145.2231564403315
 31
0.0
  0
LINE
  5
63
330
1F
100
AcDbEntity
  8
chh-txt_Pen_No__7_Pen_No__7
  6
Continuous
100
AcDbLine
 10
-108.1184641242759
 20
-140.8258867806996
 30
0.0
 11
-103.1184641242761
 21
-140.8258867806996
 31
0.0
  0
LINE
  5
64
330
1F
100
AcDbEntity
  8
chh-txt_Pen_No__7_Pen_No__7
  6
Continuous
100
AcDbLine
 10
-116.9584812446799
 20
-140.8258867806996
 30
0.0
 11
-121.9584812446798
 21
-140.8258867806996
 31
0.0
  0
LINE
  5
65
330
1F
100
AcDbEntity
  8
chh-txt_Pen_No__7_Pen_No__1
  6
Continuous
100
AcDbLine
 10
-108.1184641242759
 20
-140.8258867806996
 30
0.0
 11
-116.9584812446799
 21
-140.8258867806996
 31
0.0
  0
LINE
  5
66
330
1F
100
AcDbEntity
  8
chh-txt_Pen_No__7_Pen_No__1
  6
Continuous
100
AcDbLine
 10
-108.0981215576454
 20
-112.9607638722663
 30
0.0
 11
-108.0981215576454
 21
-145.2231564403315
 31
0.0
  0
LWPOLYLINE
  5
68
330
1F
100
AcDbEntity
  8
chh-08_Pen_No__8_Pen_No__1
  6
DASHEDX2
100
AcDbPolyline
 90
        3
 70
   128
 43
0.0
 10
139.5696215696138
 20
-74.9165978653149
 10
-100.6349964696938
 20
-74.9165978653149
 10
-100.6349964696938
 20
17.08340213468474
  0
LWPOLYLINE
  5
69
330
1F
100
AcDbEntity
  8
chh-08_Pen_No__8_Pen_No__250
  6
DASHEDX2
 62
   254
370
    18
100
AcDbPolyline
 90
        3
 70
   128
 43
0.0
 10
-3.424349275598315
 20
-75.9165978653148
 10
-101.1864878486099
 20
-75.9165978653148
 10
-101.1864878486099
 20
17.08340213468474
  0
LWPOLYLINE
  5
6A
330
1F
100
AcDbEntity
  8
chh-08_Pen_No__8_Pen_No__81
  6
Continuous
 62
   251
370
    18
100
AcDbPolyline
 90
        6
 70
   128
 43
0.0
 10
139.5696215696138
 20
-108.7220314542149
 10
139.5696215696138
 20
-22.03153793802926
 10
149.3832749740522
 20
-22.03153793802926
 10
129.7559681651754
 20
-15.48910233507017
 10
139.5696215696138
 20
-15.48910233507017
 10
139.5696215696138
 20
39.03538641158656
  0
LWPOLYLINE
  5
6B
330
1F
100
AcDbEntity
  8
chh-08_Pen_No__8_Pen_No__7
  6
Continuous
100
AcDbPolyline
 90
        2
 70
   128
 43
0.0
 10
-270.0662032410086
 20
-69.1085870656728
 10
-149.3538741257745
 20
-69.1085870656728
  0
LWPOLYLINE
  5
6D
330
1F
100
AcDbEntity
  8
chh-08_Pen_No__8_Pen_No__7
  6
Continuous
100
AcDbPolyline
 90
        2
 70
   128
 43
0.0
 10
-270.0662032410086
 20
-63.10858706570099
 10
-149.3538741257745
 20
-63.10858706570099
  0
LWPOLYLINE
  5
6E
330
1F
100
AcDbEntity
  8
chh-08_Pen_No__8_Pen_No__1
  6
Continuous
100
AcDbPolyline
 90
        2
 70
   128
 43
0.0
 10
-160.3939776654916
 20
-57.89589647157
 10
-270.0662032410086
 20
-57.89589647157
  0
LWPOLYLINE
  5
6F
330
1F
100
AcDbEntity
  8
chh-08_Pen_No__8_Pen_No__1
  6
Continuous
100
AcDbPolyline
 90
        2
 70
   128
 43
0.0
 10
-148.8939436709875
 20
-40.29589717589255
 10
-270.0662032410086
 20
-40.29589732333727
  0
LWPOLYLINE
  5
70
330
1F
100
AcDbEntity
  8
chh-08_Pen_No__8_Pen_No__1
  6
Continuous
100
AcDbPolyline
 90
        2
 70
   128
 43
0.0
 10
-122.1909210364948
 20
-99.83731592976042
 10
-270.0662032410086
 20
-99.83731592976042
  0
LWPOLYLINE
  5
71
330
1F
100
AcDbEntity
  8
chh-08_Pen_No__8_Pen_No__1
  6
DASHEDX2
100
AcDbPolyline
 90
        3
 70
   128
 43
0.0
 10
-87.41712017995624
 20
-75.9165978653148
 10
-87.41712017995624
 20
-109.8373159297606
 10
-270.0662032410086
 20
-109.8373159297606
  0
LWPOLYLINE
  5
72
330
1F
100
AcDbEntity
  8
chh-08_Pen_No__8_Pen_No__1
  6
Continuous
100
AcDbPolyline
 90
        2
 70
   128
 43
0.0
 10
-143.4060156978549
 20
-91.88485316360084
 10
-270.0662032410086
 20
-91.88485316360261
  0
LWPOLYLINE
  5
73
330
1F
100
AcDbEntity
  8
chh-08_Pen_No__8_Pen_No__1
  6
Continuous
100
AcDbPolyline
 90
        2
 70
   128
 43
0.0
 10
-270.0662032410086
 20
-64.10858706570089
 10
-149.3538741257745
 20
-64.10858706570089
  0
LWPOLYLINE
  5
74
330
1F
100
AcDbEntity
  8
chh-08_Pen_No__8_Pen_No__1
  6
Continuous
100
AcDbPolyline
 90
        2
 70
   128
 43
0.0
 10
-270.0662032410086
 20
-65.10858706570077
 10
-149.3538741257745
 20
-65.10858706570077
  0
LWPOLYLINE
  5
75
330
1F
100
AcDbEntity
  8
chh-08_Pen_No__8_Pen_No__1
  6
Continuous
100
AcDbPolyline
 90
        2
 70
   128
 43
0.0
 10
-270.0662032410086
 20
-66.1085870657011
 10
-149.3538741257745
 20
-66.1085870657011
  0
LWPOLYLINE
  5
76
330
1F
100
AcDbEntity
  8
chh-08_Pen_No__8_Pen_No__1
  6
Continuous
100
AcDbPolyline
 90
        2
 70
   128
 43
0.0
 10
-270.0662032410086
 20
-67.108587065701
 10
-149.3538741257745
 20
-67.108587065701
  0
LWPOLYLINE
  5
77
330
1F
100
AcDbEntity
  8
chh-08_Pen_No__8_Pen_No__1
  6
Continuous
100
AcDbPolyline
 90
        2
 70
   128
 43
0.0
 10
-270.0662032410086
 20
-68.10858706570089
 10
-149.3538741257745
 20
-68.10858706570089
  0
LWPOLYLINE
  5
78
330
1F
100
AcDbEntity
  8
chh-08_Pen_No__8_Pen_No__81
  6
Continuous
 62
   251
370
    18
100
AcDbPolyline
 90
        6
 70
   128
 43
0.0
 10
-270.0662032410086
 20
-117.1906716548933
 10
-270.0662032410086
 20
-30.50017813870765
 10
-260.2525498365704
 20
-30.50017813870765
 10
-279.8798566454474
 20
-23.95774253574901
 10
-270.0662032410086
 20
-23.95774253574901
 10
-270.0662032410086
 20
48.95007669401219
  0
LWPOLYLINE
  5
79
330
1F
100
AcDbEntity
  8
chh-06_Pen_No__7_Pen_No__7
  6
Continuous
100
AcDbPolyline
 90
        4
 70
   128
 43
0.0
 10
139.5696215696138
 20
-77.91659786531413
 10
-125.6881602758551
 20
-77.91659786531413
 10
-125.6881602758551
 20
-89.91659786531459
 10
139.5696215696138
 20
-89.91659786531459
  0
LWPOLYLINE
  5
7B
330
1F
100
AcDbEntity
  8
chh-07_Pen_No__7_Pen_No__7
  6
Continuous
100
AcDbPolyline
 90
        4
 70
   128
 43
0.0
 10
139.5696215696138
 20
18.08340213468507
 10
-136.8102570336495
 20
18.08340213468463
 10
-136.8102570336495
 20
28.08340213468486
 10
139.5696215696138
 20
28.0834021346853
  0
LWPOLYLINE
  5
7C
330
1F
100
AcDbEntity
  8
chh-05_Pen_No__7_Pen_No__7
  6
Continuous
100
AcDbPolyline
 90
        4
 70
   129
 43
0.0
 10
-55.49388191136507
 20
-73.91659786531413
 10
-100.4938819113652
 20
-73.91659786531413
 10
-100.4938819113652
 20
16.08340213468484
 10
-55.49388191136507
 20
16.08340213468484
  0
LWPOLYLINE
  5
7E
330
1F
100
AcDbEntity
  8
chh-06_Pen_No__7_Pen_No__7
  6
Continuous
100
AcDbPolyline
 90
        8
 70
   129
 43
0.0
 10
-127.9938819113648
 20
-43.59589711863154
 10
-127.9938819113648
 20
16.68482092503176
 10
-136.8102570336495
 20
16.68482092503176
 10
-136.8102570336495
 20
29.48198334433771
 10
-127.7840923635078
 20
29.48198334433771
 10
-127.7840923635078
 20
41.43998757221345
 10
-147.4939395411634
 20
41.43998757221345
 10
-147.4939395411634
 20
-43.59589711863154
  0
LWPOLYLINE
  5
7F
330
1F
100
AcDbEntity
  8
chh-07_Pen_No__7_Pen_No__7
  6
Continuous
100
AcDbPolyline
 90
       39
 70
   129
 43
0.0
 10
-156.5893779705087
 20
-71.39589586070805
 42
-0.4142135623730906
 10
-156.0893764928221
 20
-71.8958958380832
 10
-156.0893764928221
 20
-73.49589576568538
 42
-0.4142135623730971
 10
-157.089379448196
 20
-74.49589572043614
 10
-157.8529856019315
 20
-74.49589572043614
 42
0.6681786379193054
 10
-158.2065400378138
 20
-75.34944907181263
 10
-152.5414611304352
 20
-81.01451098047396
 42
0.414213562373095
 10
-151.1272433889048
 20
-81.01451098047396
 10
-142.4086020671326
 20
-72.29589581998341
 10
-139.5943801870784
 20
-72.29589581998341
 10
-139.5943801870784
 20
-74.59589571591063
 42
-0.9999999999999999
 10
-140.5943831424527
 20
-74.59589571591063
 10
-140.5943831424527
 20
-73.39589577020999
 10
-142.094387575514
 20
-73.39589577020999
 10
-150.5615562920927
 20
-81.86303907907966
 42
0.4142135623720841
 10
-150.5615562920927
 20
-83.27725257808748
 10
-143.2539337203966
 20
-90.5848532224257
 10
-141.5939221044557
 20
-90.5848532224257
 10
-141.5939221044557
 20
-91.88485316360084
 10
-143.4060156978549
 20
-91.88485316360084
 42
-0.1989123673791421
 10
-143.5827929152957
 20
-91.81162986191526
 10
-163.5718102201488
 20
-71.82267253639674
 42
-0.6681786379199417
 10
-163.3950330027076
 20
-71.39589586070805
 10
-160.0393875754755
 20
-71.39589586070805
 42
-0.414213562373095
 10
-159.8393875754755
 20
-71.59589586070803
 10
-159.8393875754755
 20
-72.19589581545883
 42
-0.4142135623730981
 10
-160.0393875754755
 20
-72.39589581545924
 10
-160.3893897920061
 20
-72.39589581545924
 42
0.4142135623730981
 10
-160.589389792006
 20
-72.59589581545833
 10
-160.589389792006
 20
-73.19589577021002
 42
0.4142135623730981
 10
-160.3893897920061
 20
-73.39589577020999
 10
-157.2893794481957
 20
-73.39589577020999
 42
0.4142135623730981
 10
-157.089379448196
 20
-73.19589577021002
 10
-157.089379448196
 20
-72.59589581545833
 42
0.414213562373095
 10
-157.2893794481957
 20
-72.39589581545924
 10
-157.6393816647265
 20
-72.39589581545924
 42
-0.4142135623730981
 10
-157.8393816647269
 20
-72.19589581545883
 10
-157.8393816647269
 20
-71.59589586070803
 42
-0.414213562373095
 10
-157.6393816647265
 20
-71.39589586070805
  0
LWPOLYLINE
  5
80
330
1F
100
AcDbEntity
  8
chh-07_Pen_No__7_Pen_No__7
  6
Continuous
100
AcDbPolyline
 90
      117
 70
   129
 43
0.0
 10
-141.5939221044557
 20
-59.29589640822142
 10
-141.5939221044557
 20
-63.99589619555035
 10
-141.1939209223061
 20
-64.39589617745145
 10
-141.5939221044557
 20
-64.79589615935211
 10
-141.5939221044557
 20
-68.19589600550502
 42
0.414213562373095
 10
-139.9939173758569
 20
-69.79589593310587
 10
-138.3439124994894
 20
-69.79589593310587
 42
-0.414213562373095
 10
-138.143911908414
 20
-69.9958959240562
 10
-138.143911908414
 20
-75.19589568876117
 42
-0.414213562373095
 10
-138.3439124994894
 20
-75.3958956797115
 10
-139.8439169325509
 20
-75.3958956797115
 42
-0.414213562373095
 10
-140.5939191490812
 20
-74.64589571364787
 10
-140.5939191490812
 20
-73.8958957475856
 42
0.9999999999999999
 10
-141.5939221044557
 20
-73.8958957475856
 10
-141.5939221044557
 20
-74.94589570007359
 42
0.4142135623730953
 10
-139.8439169325509
 20
-76.69589562088797
 10
-131.7946133819163
 20
-76.69589562088797
 42
-0.4142135623730951
 10
-131.2946119042295
 20
-77.19589559826356
 10
-131.2946119042295
 20
-85.99589520007179
 10
-130.8946107220794
 20
-86.395895181972
 10
-131.2946119042295
 20
-86.7958951638722
 10
-131.2946119042295
 20
-91.09589496930137
 42
-0.4142135623730929
 10
-131.7946133819163
 20
-91.59589494667696
 10
-138.7939138294074
 20
-91.59589494667696
 42
-0.414213562373095
 10
-140.2939182624693
 20
-90.09589501455062
 10
-140.2939182624693
 20
-88.19589510052361
 10
-141.5939221044557
 20
-88.19589510052361
 10
-141.5939221044555
 20
-92.69589489690311
 42
0.4142135623731003
 10
-141.3939215133805
 20
-92.89589488785299
 10
-141.0226204160502
 20
-92.89589488785299
 42
0.3540065780508911
 10
-140.2890696791396
 20
-92.30212070272114
 42
-0.8165383495623837
 10
-139.8980473765259
 20
-92.30545610956919
 42
0.3527272744047666
 10
-139.1652149267379
 20
-92.89589488785299
 10
-129.132362907993
 20
-92.89589488785299
 10
-122.1909210364948
 20
-99.83731592976042
 42
0.1989123673796518
 10
-122.0494992625422
 20
-99.89589457111003
 10
-109.8458163576414
 20
-99.89589457111003
 42
0.3540065780490233
 10
-109.1122656207308
 20
-99.30212038597774
 42
-0.802412668340081
 10
-108.7226621883106
 20
-99.29879386512785
 42
0.3552822646110098
 10
-107.9884108683295
 20
-99.89589457111003
 10
-107.9171216576437
 20
-99.89589457111003
 42
0.4142135623730929
 10
-107.4171201799563
 20
-99.39589459373444
 10
-107.4171201799563
 20
-94.09589483355451
 42
0.4142135623730929
 10
-107.9171216576437
 20
-93.59589485617892
 10
-110.4171290470794
 20
-93.59589485617892
 42
0.170789980324188
 10
-112.2956449687808
 20
-94.25683544527163
 42
1.001712213723718
 10
-111.373911502721
 20
-95.40837730316586
 42
-2.088541095513009
 10
-111.3727176191927
 20
-97.78437305365395
 42
0.6282387237222236
 10
-112.5901654681966
 20
-98.37088464011534
 10
-112.5901654681966
 20
-98.59589462993357
 10
-121.5938629969706
 20
-98.59589462993357
 10
-128.1838319667372
 20
-92.00594543412276
 42
0.1989123673796139
 10
-129.1737843864084
 20
-91.59589494667696
 10
-129.4540133405879
 20
-91.59589494667696
 42
-0.4382240493440153
 10
-129.9946080622424
 20
-91.09754549522708
 10
-129.9946080622424
 20
-77.19589559826356
 42
0.414213562373095
 10
-131.7946133819163
 20
-75.3958956797115
 10
-136.343906588741
 20
-75.3958956797115
 42
-0.414213562373095
 10
-136.8439080664278
 20
-74.89589570233635
 10
-136.8439080664278
 20
-69.9958959240562
 42
0.4142135623730951
 10
-138.3439124994894
 20
-68.49589599193028
 10
-139.9939173758569
 20
-68.49589599193028
 42
-0.414213562373095
 10
-140.1939179669316
 20
-68.29589600097997
 10
-140.1939179669316
 20
-58.39589644894561
 42
0.4142135623730951
 10
-140.6939194446188
 20
-57.89589647157
 42
-0.414213562373095
 10
-141.1939209223061
 20
-57.39589649419441
 10
-141.1939209223061
 20
-50.41579603403778
 42
0.5559838018688548
 10
-140.8433450092259
 20
-49.36870240341828
 42
-2.126832288846482
 10
-138.494487657494
 20
-49.36870220441791
 42
0.5559839317553018
 10
-138.143911908414
 20
-50.41579603403778
 10
-138.143911908414
 20
-51.64589675437703
 42
0.414213562373095
 10
-137.8939111695711
 20
-51.8958967430646
 10
-137.0939088052713
 20
-51.8958967430646
 42
0.414213562373095
 10
-136.8439080664278
 20
-51.64589675437703
 10
-136.8439080664278
 20
-44.89589705980801
 10
-128.2938827979778
 20
-44.89589705980801
 42
0.414213562373095
 10
-126.9938789559912
 20
-43.59589711863154
 10
-126.9938789559912
 20
-36.49589743990001
 10
-126.5938777738417
 20
-36.09589745799979
 10
-126.5938777738417
 20
-34.29590053944798
 42
0.9999999999999999
 10
-127.9938819113657
 20
-34.29590053944798
 10
-127.9938819113657
 20
-43.59589711863154
 10
-136.8439080664278
 20
-43.59589711863154
 42
0.414213562373095
 10
-138.143911908414
 20
-44.89589705980801
 10
-138.143911908414
 20
-45.59768331205338
 42
-0.5457627997595207
 10
-138.4975714906076
 20
-45.82518035175897
 42
0.2512837206931914
 10
-141.1628268804117
 20
-45.99821694092865
 42
-0.4926301428361715
 10
-141.5340820446065
 20
-45.85921143121874
 42
0.3296512596499983
 10
-144.5939309705783
 20
-43.59589711863154
 10
-147.4939395411636
 20
-43.59589711863154
 10
-147.4939395411636
 20
-40.29589726795357
 42
1.04474883251493
 10
-148.891264159769
 20
-40.35708661118453
 10
-148.589847652973
 20
-43.79205179675549
 42
0.388804307970108
 10
-147.4940550755052
 20
-44.79589706433262
 10
-144.5939309705783
 20
-44.79589706433262
 42
-0.414213562373095
 10
-142.5939250598298
 20
-46.79589697383501
 10
-142.5939250598298
 20
-56.89589651681926
 42
-0.414213562373095
 10
-143.5939280152045
 20
-57.89589647157
 10
-160.3939776654916
 20
-57.89589647157
 42
0.414213562373095
 10
-160.5939782565671
 20
-58.09589646252034
 10
-160.5939782565671
 20
-61.19589632224842
 42
0.4142135623730898
 10
-160.3939776654916
 20
-61.39589631319831
 10
-158.5439721980495
 20
-61.39589631319831
 42
0.9999999999999999
 10
-158.5439721980495
 20
-60.395896358448
 10
-159.2939744145798
 20
-60.395896358448
 10
-159.2939744145798
 20
-58.8958964263212
 10
-153.7939581600216
 20
-58.8958964263212
 10
-153.7939581600216
 20
-60.395896358448
 10
-154.5439603765523
 20
-60.395896358448
 42
0.9999999999999999
 10
-154.5439603765523
 20
-61.39589631319831
 10
-153.4939572734095
 20
-61.39589631319831
 42
0.414213562373094
 10
-152.4939543180352
 20
-60.395896358448
 10
-152.4939543180352
 20
-59.19589641274647
 10
-149.0939442697627
 20
-59.19589641274647
 10
-149.0939442697627
 20
-60.89589633582226
 42
0.9999999999999999
 10
-148.0939413143884
 20
-60.89589633582226
 10
-148.0939413143884
 20
-59.29589640822142
  0
LWPOLYLINE
  5
81
330
1F
100
AcDbEntity
  8
chh-07_Pen_No__7_Pen_No__7
  6
Continuous
100
AcDbPolyline
 90
        2
 70
   128
 43
0.0
 10
-149.3538741257745
 20
-63.10858706570099
 10
-149.3538741257745
 20
-69.1085870656728
  0
LWPOLYLINE
  5
82
330
1F
100
AcDbEntity
  8
chh-07_Pen_No__7_Pen_No__7
  6
Continuous
100
AcDbPolyline
 90
       12
 70
   129
 43
0.0
 10
-152.2234133474877
 20
-63.10858706570099
 10
-153.4939572734095
 20
-61.39589631319831
 10
-154.5439603765523
 20
-61.39589631319786
 42
-0.9999999999999999
 10
-154.5439603765523
 20
-60.395896358448
 10
-153.7939581600216
 20
-60.395896358448
 10
-153.7939581600216
 20
-58.8958964263212
 10
-159.2939744145798
 20
-58.8958964263212
 10
-159.2939744145798
 20
-60.395896358448
 10
-158.5439721980495
 20
-60.395896358448
 42
-0.9999999999999999
 10
-158.5439721980495
 20
-61.39589631319786
 10
-160.3939776654916
 20
-61.39589631319831
 10
-161.2560657902775
 20
-63.10858706570099
  0
LWPOLYLINE
  5
83
330
1F
100
AcDbEntity
  8
chh-07_Pen_No__7_Pen_No__7
  6
Continuous
100
AcDbPolyline
 90
       20
 70
   129
 43
0.0
 10
-160.0393875754755
 20
-71.39589586070805
 42
-0.4142135623730948
 10
-159.8393875754755
 20
-71.59589586070803
 10
-159.8393875754755
 20
-72.19589581545883
 42
-0.4142135623730952
 10
-160.0393875754755
 20
-72.39589581545924
 10
-160.3893897920061
 20
-72.39589581545924
 42
0.4142135623730952
 10
-160.589389792006
 20
-72.59589581545833
 10
-160.589389792006
 20
-73.19589577021002
 42
0.4142135623730952
 10
-160.3893897920061
 20
-73.39589577020999
 10
-157.2893794481957
 20
-73.39589577020999
 42
0.4142135623730956
 10
-157.089379448196
 20
-73.19589577021002
 10
-157.089379448196
 20
-72.59589581545833
 42
0.4142135623730951
 10
-157.2893794481957
 20
-72.39589581545924
 10
-157.6393816647265
 20
-72.39589581545924
 42
-0.4142135623730956
 10
-157.8393816647269
 20
-72.19589581545883
 10
-157.8393816647269
 20
-71.59589586070803
 42
-0.4142135623730951
 10
-157.6393816647265
 20
-71.39589586070805
 10
-156.5893779705087
 20
-71.39589586070805
 10
-155.4336244580039
 20
-69.1085870656728
 10
-164.5507865152129
 20
-69.1085870656728
 10
-163.3950330027076
 20
-71.39589586070805
  0
LWPOLYLINE
  5
85
330
1F
100
AcDbEntity
  8
chh-txt_Pen_No__7_Pen_No__7
  6
Hidden
100
AcDbPolyline
 90
        9
 70
   128
 43
0.0
 10
-70.48195837358523
 20
-89.91659786531457
 10
-70.48195837358546
 20
-88.5735709284242
 10
-71.48195837358558
 20
-88.15609655443424
 10
-71.48195837359401
 20
-35.97629987032468
 10
-72.97299464119108
 20
-31.46386926082189
 10
-74.46403090885984
 20
-35.97629987032513
 10
-74.4640309088514
 20
-88.15609655443467
 10
-75.46403090885129
 20
-88.57357092843353
 10
-75.46403090885109
 20
-89.91659786532435
  0
LWPOLYLINE
  5
86
330
1F
100
AcDbEntity
  8
chh-05_Pen_No__7_Pen_No__7
  6
Continuous
100
AcDbPolyline
 90
        4
 70
   129
 43
0.0
 10
-10.49388191136558
 20
-73.91659786531413
 10
-55.49388191136507
 20
-73.91659786531413
 10
-55.49388191136507
 20
16.08340213468484
 10
-10.49388191136558
 20
16.08340213468484
  0
LWPOLYLINE
  5
87
330
1F
100
AcDbEntity
  8
chh-txt_Pen_No__7_Pen_No__7
  6
Continuous
100
AcDbPolyline
 90
        2
 70
   128
 43
0.0
 10
-57.19409359640615
 20
-87.41659786531464
 10
-52.19409359640625
 20
-92.41659786531409
  0
LWPOLYLINE
  5
88
330
1F
100
AcDbEntity
  8
chh-txt_Pen_No__7_Pen_No__7
  6
Continuous
100
AcDbPolyline
 90
        2
 70
   128
 43
0.0
 10
-52.19409359640625
 20
-96.25661498571858
 10
-57.19409359640615
 20
-91.25661498571868
  0
LWPOLYLINE
  5
89
330
1F
100
AcDbEntity
  8
chh-09_Pen_No__9_Pen_No__1
  6
Continuous
100
AcDbPolyline
 90
        4
 70
   129
 43
0.0
 10
-111.6363527879886
 20
-89.91276301704525
 10
-113.094634241724
 20
-97.30736660717525
 10
-119.6647665082865
 20
-97.30736660717525
 10
-119.6647665082865
 20
-89.91276301704525
  0
LWPOLYLINE
  5
8B
330
1F
100
AcDbEntity
  8
chh-09_Pen_No__9_Pen_No__2
  6
Continuous
 62
   251
370
    18
100
AcDbPolyline
 90
        3
 70
   128
 43
0.0
 10
176.349170637804
 20
101.6645806536621
 10
-58.37633487684335
 20
101.6645806536621
 10
-116.7672737295984
 20
43.27364180090909
  0
LWPOLYLINE
  5
8C
330
1F
100
AcDbEntity
  8
chh-09_Pen_No__9_Pen_No__2
  6
Continuous
 62
   251
370
    18
100
AcDbPolyline
 90
        3
 70
   128
 43
0.0
 10
176.349170637804
 20
72.2276997435528
 10
-33.82752218928275
 20
72.2276997435528
 10
-122.937059847249
 20
16.08340213468485
  0
LWPOLYLINE
  5
8D
330
1F
100
AcDbEntity
  8
chh-09_Pen_No__9_Pen_No__2
  6
Continuous
 62
   251
370
    18
100
AcDbPolyline
 90
        3
 70
   128
 43
0.0
 10
175.8927103641732
 20
-30.31983578746533
 10
24.85729498010003
 20
-30.31983578746533
 10
24.85729498010003
 20
-67.5074713622118
  0
LWPOLYLINE
  5
8E
330
1F
100
AcDbEntity
  8
chh-09_Pen_No__9_Pen_No__2
  6
Continuous
 62
   251
370
    18
100
AcDbPolyline
 90
        2
 70
   128
 43
0.0
 10
166.961110419615
 20
-106.9207962826572
 10
-67.35862352885965
 20
-106.9207962826572
  0
LWPOLYLINE
  5
8F
330
1F
100
AcDbEntity
  8
chh-09_Pen_No__9_Pen_No__2
  6
Continuous
 62
   251
370
    18
100
AcDbPolyline
 90
        3
 70
   128
 43
0.0
 10
177.4570966741278
 20
-152.4077844605277
 10
-53.31896053246956
 20
-152.4077844605277
 10
-106.3308503992561
 20
-99.39589459373444
  0
LWPOLYLINE
  5
90
330
1F
100
AcDbEntity
  8
chh-09_Pen_No__9_Pen_No__2
  6
Continuous
 62
   251
370
    18
100
AcDbPolyline
 90
        3
 70
   128
 43
0.0
 10
173.9559601449622
 20
33.92058084606673
 10
63.16583184224667
 20
33.92058084606673
 10
63.16583184224667
 20
23.05735203991219
  0
LWPOLYLINE
  5
91
330
1F
100
AcDbEntity
  8
chh-09_Pen_No__9_Pen_No__2
  6
Continuous
 62
   251
370
    18
100
AcDbPolyline
 90
        3
 70
   128
 43
0.0
 10
171.362444611887
 20
-1.65325052017927
 10
-82.69867868291976
 20
-1.65325052017927
 10
-82.69867868291976
 20
-67.87836600440032
  0
LWPOLYLINE
  5
92
330
1F
100
AcDbEntity
  8
chh-09_Pen_No__9_Pen_No__2
  6
Continuous
 62
   251
370
    18
100
AcDbPolyline
 90
        3
 70
   128
 43
0.0
 10
175.8927103641732
 20
-58.49639463827205
 10
65.1025820614577
 20
-58.49639463827205
 10
65.1025820614577
 20
-73.49106965454533
  0
LWPOLYLINE
  5
93
330
1F
100
AcDbEntity
  8
0
  6
Continuous
100
AcDbPolyline
 90
        4
 70
   129
 43
0.0
 10
-102.9890181569158
 20
16.08340213468484
 10
-126.2619881507485
 20
16.08340213468485
 10
-126.2619881507485
 20
-28.16773122832228
 10
-102.9890181569158
 20
-28.16773122832229
  0
LWPOLYLINE
  5
94
330
1F
100
AcDbEntity
  8
0
  6
Continuous
100
AcDbPolyline
 90
        4
 70
   129
 43
0.0
 10
-103.0184202969517
 20
-73.91659786531413
 10
-126.2961541553607
 20
-73.91659786531413
 10
-126.2961541553607
 20
-28.16773122832228
 10
-103.0184202969517
 20
-28.16773122832228
  0
LWPOLYLINE
  5
95
330
1F
100
AcDbEntity
  8
chh-09_Pen_No__9_Pen_No__2
  6
Continuous
 62
   251
370
    18
100
AcDbPolyline
 90
        3
 70
   128
 43
0.0
 10
177.4570966741278
 20
-133.6615712908967
 10
-53.31896053246956
 20
-133.6615712908967
 10
-100.8488075635307
 20
-93.05996205787221
  0
LWPOLYLINE
  5
96
330
1F
100
AcDbEntity
  8
chh-09_Pen_No__9_Pen_No__2
  6
Continuous
 62
   251
370
    18
100
AcDbPolyline
 90
        3
 70
   128
 43
0.0
 10
168.305444439686
 20
57.52701206840879
 10
-41.87124838740076
 20
57.52701206840879
 10
-115.3938416289318
 20
11.2034145678528
  0
LWPOLYLINE
  5
98
330
1F
100
AcDbEntity
  8
0
  6
Dashed
100
AcDbPolyline
 90
       13
 70
   129
 43
0.0
 10
-112.3132273855067
 20
-89.91659786531459
 10
-107.9749579562281
 20
-89.91659786531459
 10
-108.5329133662719
 20
-90.80252872432277
 10
-108.6908249800119
 20
-91.74944146073051
 10
-108.5118577901094
 20
-92.78052453386886
 10
-107.9960135323906
 20
-93.61170412281525
 10
-110.533128876139
 20
-93.61170412281525
 10
-111.0932473784853
 20
-93.59589485617892
 10
-112.3964883484284
 20
-94.26402210139042
 10
-111.6385119081458
 20
-93.27502372304264
 10
-111.3963814614083
 20
-92.04403716571268
 10
-111.649039696227
 20
-90.89721999796359
 10
-112.3132273855067
 20
-90.04890079123459
  0
LWPOLYLINE
  5
99
330
1F
100
AcDbEntity
  8
chh-txt_Pen_No__7_Pen_No__7
  6
Continuous
100
AcDbPolyline
 90
        2
 70
   128
 43
0.0
 10
-105.6184641242762
 20
-138.3258867806997
 10
-110.6184641242757
 20
-143.3258867806996
  0
LWPOLYLINE
  5
9A
330
1F
100
AcDbEntity
  8
chh-txt_Pen_No__7_Pen_No__7
  6
Continuous
100
AcDbPolyline
 90
        2
 70
   128
 43
0.0
 10
-119.4584812446798
 20
-143.3258867806996
 10
-114.4584812446799
 20
-138.3258867806997
  0
LINE
  5
9B
330
1F
100
AcDbEntity
  8
0
  6
DASHEDX2
100
AcDbLine
 10
-270.0662032410086
 20
-29.23494549789734
 30
0.0
 11
-101.9656409729642
 21
-29.23494549789734
 31
0.0
  0
LINE
  5
9C
330
1F
100
AcDbEntity
  8
0
  6
DASHEDX2
100
AcDbLine
 10
-101.9656409729642
 20
-29.23494549789734
 30
0.0
 11
-101.9656409729642
 21
-102.9092026919933
 31
0.0
  0
LINE
  5
9D
330
1F
100
AcDbEntity
  8
0
  6
DASHEDX2
100
AcDbLine
 10
-101.9656409729642
 20
-102.9092026919933
 30
0.0
 11
-270.0662032410086
 21
-102.9092026919933
 31
0.0
  0
LINE
  5
9E
330
1F
100
AcDbEntity
  8
0
  6
Dashed
100
AcDbLine
 10
-270.0662032410086
 20
-102.9092026919933
 30
0.0
 11
-270.0662032410086
 21
-29.23494549789734
 31
0.0
  0
ELLIPSE
  5
9F
330
1F
100
AcDbEntity
  8
chh-08_Pen_No__8_Pen_No__81
  6
Hidden
 62
   251
370
    18
100
AcDbEllipse
 10
-125.0581052078346
 20
12.95867727127825
 30
0.0
 11
-9.439825752966998E-16
 21
-5.138801794138725
 31
0.0
210
0.0
220
0.0
230
1.0
 40
0.6241134751773082
 41
0.0
 42
6.283185307179586
  0
MTEXT
  5
A1
330
1F
100
AcDbEntity
  8
chh-txt_Pen_No__7_Pen_No__7
  6
Continuous
100
AcDbMText
 10
-245.6706514819371
 20
-224.6259698792921
 30
0.0
 40
10.0
 41
0.0
 71
     7
 72
     1
  1
{Plan}
  7
GENERATED_STYLE_1
 73
     1
 44
1.0
  0
MTEXT
  5
C4
330
1F
100
AcDbEntity
  8
chh-txt_Pen_No__7_Pen_No__7
  6
Continuous
100
AcDbMText
 10
-48.54802322172547
 20
-100.1102458094584
 30
0.0
 40
5.000000000000001
 41
0.0
 71
     7
 72
     1
  1
{5mm window offset}
  7
GENERATED_STYLE_1
 73
     1
 44
1.0
  0
MTEXT
  5
C5
330
1F
100
AcDbEntity
  8
Defpoints_Pen_No__211_Pen_No__115
  6
Continuous
 62
   211
370
    18
100
AcDbMText
 10
-251.0238623168675
 20
-295.1900329802647
 30
0.0
 40
10.0
 41
0.0
 71
     7
 72
     1
  1
{SC029 Shadowclad Jamb detail (Direct)}
  7
GENERATED_STYLE_1
 73
     1
 44
1.0
  0
MTEXT
  5
C7
330
1F
100
AcDbEntity
  8
chh-txt_Pen_No__7_Pen_No__7
  6
Continuous
100
AcDbMText
 10
180.022393995368
 20
70.36450898398112
 30
0.0
 40
5.000000000000001
 41
0.0
 71
     7
 72
     1
  1
{Fit air seal over PEF rod}
  7
GENERATED_STYLE_1
 73
     1
 44
1.0
  0
MTEXT
  5
C8
330
1F
100
AcDbEntity
  8
chh-txt_Pen_No__7_Pen_No__7
  6
Continuous
100
AcDbMText
 10
180.022393995368
 20
98.67232360935844
 30
0.0
 40
5.000000000000001
 41
0.0
 71
     7
 72
     1
  1
{Interior jamb liner over timber packer}
  7
GENERATED_STYLE_1
 73
     1
 44
1.0
  0
MTEXT
  5
C9
330
1F
100
AcDbEntity
  8
chh-txt_Pen_No__7_Pen_No__7
  6
Continuous
100
AcDbMText
 10
180.4411013988361
 20
30.80158057761364
 30
0.0
 40
5.000000000000001
 41
0.0
 71
     7
 72
     1
  1
{Interior lining}
  7
GENERATED_STYLE_1
 73
     1
 44
1.0
  0
MTEXT
  5
CA
330
1F
100
AcDbEntity
  8
chh-txt_Pen_No__7_Pen_No__7
  6
Continuous
100
AcDbMText
 10
180.022393995368
 20
-4.297027621881987
 30
0.0
 40
5.000000000000001
 41
0.0
 71
     7
 72
     1
  1
{Flexible flashing }
  7
GENERATED_STYLE_1
 73
     1
 44
1.0
  0
MTEXT
  5
CB
330
1F
100
AcDbEntity
  8
chh-txt_Pen_No__7_Pen_No__7
  6
Continuous
100
AcDbMText
 10
180.022393995368
 20
-33.56158645144501
 30
0.0
 40
5.000000000000001
 41
0.0
 71
     7
 72
     1
  1
{Building underlay}
  7
GENERATED_STYLE_1
 73
     1
 44
1.0
  0
MTEXT
  5
CC
330
1F
100
AcDbEntity
  8
chh-txt_Pen_No__7_Pen_No__7
  6
Continuous
100
AcDbMText
 10
180.022393995368
 20
-62.34045364595541
 30
0.0
 40
5.000000000000001
 41
0.0
 71
     7
 72
     1
  1
{Shadowclad. Treat all cut edges with }
  7
GENERATED_STYLE_1
 73
     1
 44
1.0
  0
MTEXT
  5
CD
330
1F
100
AcDbEntity
  8
chh-txt_Pen_No__7_Pen_No__7
  6
Continuous
100
AcDbMText
 10
180.022393995368
 20
-154.3748267135377
 30
0.0
 40
5.000000000000001
 41
0.0
 71
     7
 72
     1
  1
{Continuous protective seal with foam }
  7
GENERATED_STYLE_1
 73
     1
 44
1.0
  0
MTEXT
  5
CE
330
1F
100
AcDbEntity
  8
chh-txt_Pen_No__7_Pen_No__7
  6
Continuous
100
AcDbMText
 10
180.022393995368
 20
-111.4192425402277
 30
0.0
 40
5.000000000000001
 41
0.0
 71
     7
 72
     1
  1
{Head flashing to overhang joinery line }
  7
GENERATED_STYLE_1
 73
     1
 44
1.0
  0
MTEXT
  5
CF
330
1F
100
AcDbEntity
  8
chh-txt_Pen_No__7_Pen_No__7
  6
Continuous
100
AcDbMText
 10
180.022393995368
 20
-119.4205488660707
 30
0.0
 40
5.000000000000001
 41
0.0
 71
     7
 72
     1
  1
{for 20mm min cover}
  7
GENERATED_STYLE_1
 73
     1
 44
1.0
  0
MTEXT
  5
D0
330
1F
100
AcDbEntity
  8
chh-txt_Pen_No__7_Pen_No__7
  6
Continuous
100
AcDbMText
 10
180.022393995368
 20
-70.34175997179844
 30
0.0
 40
5.000000000000001
 41
0.0
 71
     7
 72
     1
  1
{Holdfast Metalex Clear }
  7
GENERATED_STYLE_1
 73
     1
 44
1.0
  0
MTEXT
  5
D1
330
1F
100
AcDbEntity
  8
chh-txt_Pen_No__7_Pen_No__7
  6
Continuous
100
AcDbMText
 10
180.022393995368
 20
-162.4527124282428
 30
0.0
 40
5.000000000000001
 41
0.0
 71
     7
 72
     1
  1
{bond breaker.}
  7
GENERATED_STYLE_1
 73
     1
 44
1.0
  0
MTEXT
  5
D2
330
1F
100
AcDbEntity
  8
chh-txt_Pen_No__7_Pen_No__7
  6
Continuous
100
AcDbMText
 10
180.022393995368
 20
-137.7121926042594
 30
0.0
 40
5.000000000000001
 41
0.0
 71
     7
 72
     1
  1
{Sill tray to framing and to outside of Shadowclad}
  7
GENERATED_STYLE_1
 73
     1
 44
1.0
  0
MTEXT
  5
D3
330
1F
100
AcDbEntity
  8
chh-txt_Pen_No__7_Pen_No__7
  6
Continuous
100
AcDbMText
 10
179.4175400233485
 20
48.26409816640099
 30
0.0
 40
5.000000000000001
 41
0.0
 71
     7
 72
     1
  1
{20mm packers to studs \Pcut short of sill tray}
  7
GENERATED_STYLE_1
 73
     1
 44
0.890805975680578
  0
MTEXT
  5
D4
330
1F
100
AcDbEntity
  8
chh-txt_Pen_No__7_Pen_No__7
  6
Continuous
100
AcDbMText
 10
-106.6661515564255
 20
-149.344026428804
 30
0.0
 40
5.000000000000001
 41
0.0
 71
     7
 72
     1
  1
{10mm cover}
  7
GENERATED_STYLE_1
 73
     1
 44
1.0
  0
ENDSEC
  0
SECTION
  2
OBJECTS
  0
DICTIONARY
  5
C
330
0
100
AcDbDictionary
281
     1
  3
ACAD_GROUP
350
D
  3
ACAD_LAYOUT
350
1A
  3
ACAD_MLEADERSTYLE
350
DC
  3
ACAD_MLINESTYLE
350
17
  3
ACAD_PLOTSETTINGS
350
19
  3
ACAD_PLOTSTYLENAME
350
E
  3
ACAD_SCALELIST
350
A2
  3
ACAD_VISUALSTYLE
350
2A
  3
AcDbVariableDictionary
350
DA
  3
WATERMARKS
350
D8
  0
DICTIONARY
  5
D
102
{ACAD_REACTORS
330
C
102
}
330
C
100
AcDbDictionary
281
     1
  0
DICTIONARY
  5
1A
102
{ACAD_REACTORS
330
C
102
}
330
C
100
AcDbDictionary
281
     1
  3
Layout1
350
1E
  3
Layout2
350
26
  3
Model
350
22
  0
DICTIONARY
  5
DC
102
{ACAD_REACTORS
330
C
102
}
330
C
100
AcDbDictionary
281
     1
  0
DICTIONARY
  5
17
102
{ACAD_REACTORS
330
C
102
}
330
C
100
AcDbDictionary
281
     1
  3
Standard
350
18
  0
DICTIONARY
  5
19
102
{ACAD_REACTORS
330
C
102
}
330
C
100
AcDbDictionary
281
     1
  0
ACDBDICTIONARYWDFLT
  5
E
102
{ACAD_REACTORS
330
C
102
}
330
C
100
AcDbDictionary
281
     1
  3
Normal
350
F
100
AcDbDictionaryWithDefault
340
F
  0
DICTIONARY
  5
A2
102
{ACAD_REACTORS
330
C
102
}
330
C
100
AcDbDictionary
281
     1
  3
A0
350
A3
  3
A1
350
A4
  3
A2
350
A5
  3
A3
350
A6
  3
A4
350
A7
  3
A5
350
A8
  3
A6
350
A9
  3
A7
350
AA
  3
A8
350
AB
  3
A9
350
AC
  3
B0
350
AD
  3
B1
350
AE
  3
B2
350
AF
  3
B3
350
B0
  3
B4
350
B1
  3
B5
350
B2
  3
B6
350
B3
  3
B7
350
B4
  3
B8
350
B5
  3
B9
350
B6
  3
C0
350
B7
  3
C1
350
B8
  3
C2
350
B9
  3
C3
350
BA
  3
C4
350
BB
  3
C5
350
BC
  3
C6
350
BD
  3
C7
350
BE
  3
C8
350
BF
  3
C9
350
C0
  3
D0
350
C1
  3
D1
350
C2
  3
D2
350
C3
  0
DICTIONARY
  5
2A
102
{ACAD_REACTORS
330
C
102
}
330
C
100
AcDbDictionary
281
     1
  3
2dWireframe
350
2F
  3
3D Hidden
350
31
  3
3dWireframe
350
30
  3
Basic
350
32
  3
Brighten
350
36
  3
ColorChange
350
3A
  3
Conceptual
350
34
  3
Dim
350
35
  3
Facepattern
350
39
  3
Flat
350
2B
  3
FlatWithEdges
350
2C
  3
Gouraud
350
2D
  3
GouraudWithEdges
350
2E
  3
Linepattern
350
38
  3
Realistic
350
33
  3
Thicken
350
37
  0
DICTIONARY
  5
DA
102
{ACAD_REACTORS
330
C
102
}
330
C
100
AcDbDictionary
281
     1
  3
CANNOSCALE
350
DD
  0
DICTIONARY
  5
D8
102
{ACAD_REACTORS
330
C
102
}
330
C
100
AcDbDictionary
281
     1
  3
AC_WATERMARK
350
D9
  0
LAYOUT
  5
1E
102
{ACAD_REACTORS
330
1A
102
}
330
1A
100
AcDbPlotSettings
  1

  2
none_device
  4

  6

 40
0.0
 41
0.0
 42
0.0
 43
0.0
 44
0.0
 45
0.0
 46
0.0
 47
0.0
 48
0.0
 49
0.0
140
0.0
141
0.0
142
1.0
143
1.0
 70
   688
 72
     0
 73
     0
 74
     5
  7

 75
    16
147
1.0
148
0.0
149
0.0
100
AcDbLayout
  1
Layout1
 70
     1
 71
     1
 10
0.0
 20
0.0
 11
12.0
 21
9.0
 12
0.0
 22
0.0
 32
0.0
 14
1.000000000000000E+20
 24
1.000000000000000E+20
 34
1.000000000000000E+20
 15
-1.000000000000000E+20
 25
-1.000000000000000E+20
 35
-1.000000000000000E+20
146
0.0
 13
0.0
 23
0.0
 33
0.0
 16
1.0
 26
0.0
 36
0.0
 17
0.0
 27
1.0
 37
0.0
 76
     0
330
1B
  0
LAYOUT
  5
26
102
{ACAD_REACTORS
330
1A
102
}
330
1A
100
AcDbPlotSettings
  1

  2
none_device
  4

  6

 40
0.0
 41
0.0
 42
0.0
 43
0.0
 44
0.0
 45
0.0
 46
0.0
 47
0.0
 48
0.0
 49
0.0
140
0.0
141
0.0
142
1.0
143
1.0
 70
   688
 72
     0
 73
     0
 74
     5
  7

 75
    16
147
1.0
148
0.0
149
0.0
100
AcDbLayout
  1
Layout2
 70
     1
 71
     2
 10
0.0
 20
0.0
 11
0.0
 21
0.0
 12
0.0
 22
0.0
 32
0.0
 14
0.0
 24
0.0
 34
0.0
 15
0.0
 25
0.0
 35
0.0
146
0.0
 13
0.0
 23
0.0
 33
0.0
 16
1.0
 26
0.0
 36
0.0
 17
0.0
 27
1.0
 37
0.0
 76
     0
330
23
  0
LAYOUT
  5
22
102
{ACAD_REACTORS
330
1A
102
}
330
1A
100
AcDbPlotSettings
  1

  2
none_device
  4

  6

 40
0.0
 41
0.0
 42
0.0
 43
0.0
 44
0.0
 45
0.0
 46
0.0
 47
0.0
 48
0.0
 49
0.0
140
0.0
141
0.0
142
1.0
143
1.0
 70
  1712
 72
     0
 73
     0
 74
     0
  7

 75
     0
147
1.0
148
0.0
149
0.0
100
AcDbLayout
  1
Model
 70
     1
 71
     0
 10
0.0
 20
0.0
 11
12.0
 21
9.0
 12
0.0
 22
0.0
 32
0.0
 14
1.000000000000000E+20
 24
1.000000000000000E+20
 34
1.000000000000000E+20
 15
-1.000000000000000E+20
 25
-1.000000000000000E+20
 35
-1.000000000000000E+20
146
0.0
 13
0.0
 23
0.0
 33
0.0
 16
1.0
 26
0.0
 36
0.0
 17
0.0
 27
1.0
 37
0.0
 76
     0
330
1F
331
29
  0
MLINESTYLE
  5
18
102
{ACAD_REACTORS
330
17
102
}
330
17
100
AcDbMlineStyle
  2
Standard
 70
     0
  3

 62
   256
 51
90.0
 52
90.0
 71
     2
 49
0.5
 62
   256
  6
BYLAYER
 49
-0.5
 62
   256
  6
BYLAYER
  0
ACDBPLACEHOLDER
  5
F
102
{ACAD_REACTORS
330
E
102
}
330
E
  0
SCALE
  5
A3
102
{ACAD_REACTORS
330
A2
102
}
330
A2
100
AcDbScale
 70
     0
300
1:1
140
1.0
141
1.0
290
     1
  0
SCALE
  5
A4
102
{ACAD_REACTORS
330
A2
102
}
330
A2
100
AcDbScale
 70
     0
300
1:2
140
1.0
141
2.0
290
     0
  0
SCALE
  5
A5
102
{ACAD_REACTORS
330
A2
102
}
330
A2
100
AcDbScale
 70
     0
300
1:4
140
1.0
141
4.0
290
     0
  0
SCALE
  5
A6
102
{ACAD_REACTORS
330
A2
102
}
330
A2
100
AcDbScale
 70
     0
300
1:5
140
1.0
141
5.0
290
     0
  0
SCALE
  5
A7
102
{ACAD_REACTORS
330
A2
102
}
330
A2
100
AcDbScale
 70
     0
300
1:8
140
1.0
141
8.0
290
     0
  0
SCALE
  5
A8
102
{ACAD_REACTORS
330
A2
102
}
330
A2
100
AcDbScale
 70
     0
300
1:10
140
1.0
141
10.0
290
     0
  0
SCALE
  5
A9
102
{ACAD_REACTORS
330
A2
102
}
330
A2
100
AcDbScale
 70
     0
300
1:16
140
1.0
141
16.0
290
     0
  0
SCALE
  5
AA
102
{ACAD_REACTORS
330
A2
102
}
330
A2
100
AcDbScale
 70
     0
300
1:20
140
1.0
141
20.0
290
     0
  0
SCALE
  5
AB
102
{ACAD_REACTORS
330
A2
102
}
330
A2
100
AcDbScale
 70
     0
300
1:30
140
1.0
141
30.0
290
     0
  0
SCALE
  5
AC
102
{ACAD_REACTORS
330
A2
102
}
330
A2
100
AcDbScale
 70
     0
300
1:40
140
1.0
141
40.0
290
     0
  0
SCALE
  5
AD
102
{ACAD_REACTORS
330
A2
102
}
330
A2
100
AcDbScale
 70
     0
300
1:50
140
1.0
141
50.0
290
     0
  0
SCALE
  5
AE
102
{ACAD_REACTORS
330
A2
102
}
330
A2
100
AcDbScale
 70
     0
300
1:100
140
1.0
141
100.0
290
     0
  0
SCALE
  5
AF
102
{ACAD_REACTORS
330
A2
102
}
330
A2
100
AcDbScale
 70
     0
300
2:1
140
2.0
141
1.0
290
     0
  0
SCALE
  5
B0
102
{ACAD_REACTORS
330
A2
102
}
330
A2
100
AcDbScale
 70
     0
300
4:1
140
4.0
141
1.0
290
     0
  0
SCALE
  5
B1
102
{ACAD_REACTORS
330
A2
102
}
330
A2
100
AcDbScale
 70
     0
300
8:1
140
8.0
141
1.0
290
     0
  0
SCALE
  5
B2
102
{ACAD_REACTORS
330
A2
102
}
330
A2
100
AcDbScale
 70
     0
300
10:1
140
10.0
141
1.0
290
     0
  0
SCALE
  5
B3
102
{ACAD_REACTORS
330
A2
102
}
330
A2
100
AcDbScale
 70
     0
300
100:1
140
100.0
141
1.0
290
     0
  0
SCALE
  5
B4
102
{ACAD_REACTORS
330
A2
102
}
330
A2
100
AcDbScale
 70
     0
300
1/128" = 1'-0"
140
0.0078125
141
12.0
290
     0
  0
SCALE
  5
B5
102
{ACAD_REACTORS
330
A2
102
}
330
A2
100
AcDbScale
 70
     0
300
1/64" = 1'-0"
140
0.015625
141
12.0
290
     0
  0
SCALE
  5
B6
102
{ACAD_REACTORS
330
A2
102
}
330
A2
100
AcDbScale
 70
     0
300
1/32" = 1'-0"
140
0.03125
141
12.0
290
     0
  0
SCALE
  5
B7
102
{ACAD_REACTORS
330
A2
102
}
330
A2
100
AcDbScale
 70
     0
300
1/16" = 1'-0"
140
0.0625
141
12.0
290
     0
  0
SCALE
  5
B8
102
{ACAD_REACTORS
330
A2
102
}
330
A2
100
AcDbScale
 70
     0
300
3/32" = 1'-0"
140
0.09375
141
12.0
290
     0
  0
SCALE
  5
B9
102
{ACAD_REACTORS
330
A2
102
}
330
A2
100
AcDbScale
 70
     0
300
1/8" = 1'-0"
140
0.125
141
12.0
290
     0
  0
SCALE
  5
BA
102
{ACAD_REACTORS
330
A2
102
}
330
A2
100
AcDbScale
 70
     0
300
3/16" = 1'-0"
140
0.1875
141
12.0
290
     0
  0
SCALE
  5
BB
102
{ACAD_REACTORS
330
A2
102
}
330
A2
100
AcDbScale
 70
     0
300
1/4" = 1'-0"
140
0.25
141
12.0
290
     0
  0
SCALE
  5
BC
102
{ACAD_REACTORS
330
A2
102
}
330
A2
100
AcDbScale
 70
     0
300
3/8" = 1'-0"
140
0.375
141
12.0
290
     0
  0
SCALE
  5
BD
102
{ACAD_REACTORS
330
A2
102
}
330
A2
100
AcDbScale
 70
     0
300
1/2" = 1'-0"
140
0.5
141
12.0
290
     0
  0
SCALE
  5
BE
102
{ACAD_REACTORS
330
A2
102
}
330
A2
100
AcDbScale
 70
     0
300
3/4" = 1'-0"
140
0.75
141
12.0
290
     0
  0
SCALE
  5
BF
102
{ACAD_REACTORS
330
A2
102
}
330
A2
100
AcDbScale
 70
     0
300
1" = 1'-0"
140
1.0
141
12.0
290
     0
  0
SCALE
  5
C0
102
{ACAD_REACTORS
330
A2
102
}
330
A2
100
AcDbScale
 70
     0
300
1-1/2" = 1'-0"
140
1.5
141
12.0
290
     0
  0
SCALE
  5
C1
102
{ACAD_REACTORS
330
A2
102
}
330
A2
100
AcDbScale
 70
     0
300
3" = 1'-0"
140
3.0
141
12.0
290
     0
  0
SCALE
  5
C2
102
{ACAD_REACTORS
330
A2
102
}
330
A2
100
AcDbScale
 70
     0
300
6" = 1'-0"
140
6.0
141
12.0
290
     0
  0
SCALE
  5
C3
102
{ACAD_REACTORS
330
A2
102
}
330
A2
100
AcDbScale
 70
     0
300
1'-0" = 1'-0"
140
12.0
141
12.0
290
     0
  0
VISUALSTYLE
  5
2F
102
{ACAD_REACTORS
330
2A
102
}
330
2A
100
AcDbVisualStyle
  2
2dWireframe
 70
     4
 71
     0
 72
     2
 73
     0
 90
        0
 40
-0.6
 41
-30.0
 62
     5
 63
     7
 74
     1
 91
        4
 64
     7
 65
   257
 75
     1
175
     1
 42
1.0
 92
        0
 66
   257
 43
1.0
 76
     1
 77
     6
 78
     2
 67
     7
 79
     5
170
     0
171
     0
290
     0
174
     0
 93
        1
 44
0.0
173
     0
291
     0
 45
0.0
1001
ACAD
1000
AcDbSavedByObjectVersion
1070
     0
  0
VISUALSTYLE
  5
31
102
{ACAD_REACTORS
330
2A
102
}
330
2A
100
AcDbVisualStyle
  2
3D Hidden
 70
     6
 71
     1
 72
     2
 73
     2
 90
        0
 40
-0.6
 41
-30.0
 62
     5
 63
     7
 74
     2
 91
        2
 64
     7
 65
   257
 75
     2
175
     1
 42
40.0
 92
        0
 66
   257
 43
1.0
 76
     1
 77
     6
 78
     2
 67
     7
 79
     3
170
     0
171
     0
290
     0
174
     0
 93
        1
 44
0.0
173
     0
291
     0
 45
0.0
1001
ACAD
1000
AcDbSavedByObjectVersion
1070
     0
  0
VISUALSTYLE
  5
30
102
{ACAD_REACTORS
330
2A
102
}
330
2A
100
AcDbVisualStyle
  2
3dWireframe
 70
     5
 71
     0
 72
     2
 73
     0
 90
        0
 40
-0.6
 41
-30.0
 62
     5
 63
     7
 74
     1
 91
        4
 64
     7
 65
   257
 75
     1
175
     1
 42
1.0
 92
        0
 66
   257
 43
1.0
 76
     1
 77
     6
 78
     2
 67
     7
 79
     5
170
     0
171
     0
290
     0
174
     0
 93
        1
 44
0.0
173
     0
291
     0
 45
0.0
1001
ACAD
1000
AcDbSavedByObjectVersion
1070
     0
  0
VISUALSTYLE
  5
32
102
{ACAD_REACTORS
330
2A
102
}
330
2A
100
AcDbVisualStyle
  2
Basic
 70
     7
 71
     1
 72
     0
 73
     1
 90
        0
 40
-0.6
 41
-30.0
 62
     5
 63
     7
 74
     0
 91
        4
 64
     7
 65
   257
 75
     1
175
     1
 42
1.0
 92
        8
 66
     7
 43
1.0
 76
     1
 77
     6
 78
     2
 67
     7
 79
     5
170
     0
171
     0
290
     0
174
     0
 93
        1
 44
0.0
173
     0
291
     1
 45
0.0
1001
ACAD
1000
AcDbSavedByObjectVersion
1070
     0
  0
VISUALSTYLE
  5
36
102
{ACAD_REACTORS
330
2A
102
}
330
2A
100
AcDbVisualStyle
  2
Brighten
 70
    12
 71
     2
 72
     2
 73
     0
 90
        0
 40
-0.6
 41
-30.0
 62
     5
 63
     7
 74
     1
 91
        4
 64
     7
 65
   257
 75
     1
175
     1
 42
1.0
 92
        8
 66
     7
 43
1.0
 76
     1
 77
     6
 78
     2
 67
     7
 79
     5
170
     0
171
     0
290
     0
174
     0
 93
        1
 44
50.0
173
     0
291
     1
 45
0.0
1001
ACAD
1000
AcDbSavedByObjectVersion
1070
     0
  0
VISUALSTYLE
  5
3A
102
{ACAD_REACTORS
330
2A
102
}
330
2A
100
AcDbVisualStyle
  2
ColorChange
 70
    16
 71
     2
 72
     2
 73
     3
 90
        0
 40
-0.6
 41
-30.0
 62
     5
 63
     8
 74
     1
 91
        4
 64
     7
 65
   257
 75
     1
175
     1
 42
1.0
 92
        8
 66
     8
 43
1.0
 76
     1
 77
     6
 78
     2
 67
     7
 79
     5
170
     0
171
     0
290
     0
174
     0
 93
        1
 44
0.0
173
     0
291
     1
 45
0.0
1001
ACAD
1000
AcDbSavedByObjectVersion
1070
     0
  0
VISUALSTYLE
  5
34
102
{ACAD_REACTORS
330
2A
102
}
330
2A
100
AcDbVisualStyle
  2
Conceptual
 70
     9
 71
     3
 72
     2
 73
     0
 90
        0
 40
-0.6
 41
-30.0
 62
     5
 63
     7
 74
     2
 91
        2
 64
     7
 65
   257
 75
     1
175
     1
 42
40.0
 92
        8
 66
     7
 43
1.0
 76
     1
 77
     6
 78
     2
 67
     7
 79
     3
170
     0
171
     0
290
     0
174
     0
 93
        1
 44
0.0
173
     0
291
     0
 45
0.0
1001
ACAD
1000
AcDbSavedByObjectVersion
1070
     0
  0
VISUALSTYLE
  5
35
102
{ACAD_REACTORS
330
2A
102
}
330
2A
100
AcDbVisualStyle
  2
Dim
 70
    11
 71
     2
 72
     2
 73
     0
 90
        0
 40
-0.6
 41
-30.0
 62
     5
 63
     7
 74
     1
 91
        4
 64
     7
 65
   257
 75
     1
175
     1
 42
1.0
 92
        8
 66
     7
 43
1.0
 76
     1
 77
     6
 78
     2
 67
     7
 79
     5
170
     0
171
     0
290
     0
174
     0
 93
        1
 44
-50.0
173
     0
291
     1
 45
0.0
1001
ACAD
1000
AcDbSavedByObjectVersion
1070
     0
  0
VISUALSTYLE
  5
39
102
{ACAD_REACTORS
330
2A
102
}
330
2A
100
AcDbVisualStyle
  2
Facepattern
 70
    15
 71
     2
 72
     2
 73
     0
 90
        0
 40
-0.6
 41
-30.0
 62
     5
 63
     7
 74
     1
 91
        4
 64
     7
 65
   257
 75
     1
175
     1
 42
1.0
 92
        8
 66
     7
 43
1.0
 76
     1
 77
     6
 78
     2
 67
     7
 79
     5
170
     0
171
     0
290
     0
174
     0
 93
        1
 44
0.0
173
     0
291
     1
 45
0.0
1001
ACAD
1000
AcDbSavedByObjectVersion
1070
     0
  0
VISUALSTYLE
  5
2B
102
{ACAD_REACTORS
330
2A
102
}
330
2A
100
AcDbVisualStyle
  2
Flat
 70
     0
 71
     2
 72
     1
 73
     1
 90
        2
 40
-0.6
 41
30.0
 62
     5
 63
     7
 74
     0
 91
        4
 64
     7
 65
   257
 75
     1
175
     1
 42
1.0
 92
        8
 66
     7
 43
1.0
 76
     1
 77
     6
 78
     2
 67
     7
 79
     5
170
     0
171
     0
290
     0
174
     0
 93
       13
 44
0.0
173
     0
291
     1
 45
0.0
1001
ACAD
1000
AcDbSavedByObjectVersion
1070
     0
  0
VISUALSTYLE
  5
2C
102
{ACAD_REACTORS
330
2A
102
}
330
2A
100
AcDbVisualStyle
  2
FlatWithEdges
 70
     1
 71
     2
 72
     1
 73
     1
 90
        2
 40
-0.6
 41
30.0
 62
     5
 63
     7
 74
     1
 91
        4
 64
     7
 65
   257
 75
     1
175
     1
 42
1.0
 92
        0
 66
   257
 43
1.0
 76
     1
 77
     6
 78
     2
 67
     7
 79
     5
170
     0
171
     0
290
     0
174
     0
 93
       13
 44
0.0
173
     0
291
     1
 45
0.0
1001
ACAD
1000
AcDbSavedByObjectVersion
1070
     0
  0
VISUALSTYLE
  5
2D
102
{ACAD_REACTORS
330
2A
102
}
330
2A
100
AcDbVisualStyle
  2
Gouraud
 70
     2
 71
     2
 72
     2
 73
     1
 90
        2
 40
-0.6
 41
30.0
 62
     5
 63
     7
 74
     0
 91
        4
 64
     7
 65
   257
 75
     1
175
     1
 42
1.0
 92
        0
 66
     7
 43
1.0
 76
     1
 77
     6
 78
     2
 67
     7
 79
     5
170
     0
171
     0
290
     0
174
     0
 93
       13
 44
0.0
173
     0
291
     1
 45
0.0
1001
ACAD
1000
AcDbSavedByObjectVersion
1070
     0
  0
VISUALSTYLE
  5
2E
102
{ACAD_REACTORS
330
2A
102
}
330
2A
100
AcDbVisualStyle
  2
GouraudWithEdges
 70
     3
 71
     2
 72
     2
 73
     1
 90
        2
 40
-0.6
 41
30.0
 62
     5
 63
     7
 74
     1
 91
        4
 64
     7
 65
   257
 75
     1
175
     1
 42
1.0
 92
        0
 66
   257
 43
1.0
 76
     1
 77
     6
 78
     2
 67
     7
 79
     5
170
     0
171
     0
290
     0
174
     0
 93
       13
 44
0.0
173
     0
291
     1
 45
0.0
1001
ACAD
1000
AcDbSavedByObjectVersion
1070
     0
  0
VISUALSTYLE
  5
38
102
{ACAD_REACTORS
330
2A
102
}
330
2A
100
AcDbVisualStyle
  2
Linepattern
 70
    14
 71
     2
 72
     2
 73
     0
 90
        0
 40
-0.6
 41
-30.0
 62
     5
 63
     7
 74
     1
 91
        4
 64
     7
 65
   257
 75
     7
175
     7
 42
1.0
 92
        8
 66
     7
 43
1.0
 76
     1
 77
     6
 78
     2
 67
     7
 79
     5
170
     0
171
     0
290
     0
174
     0
 93
        1
 44
0.0
173
     0
291
     1
 45
0.0
1001
ACAD
1000
AcDbSavedByObjectVersion
1070
     0
  0
VISUALSTYLE
  5
33
102
{ACAD_REACTORS
330
2A
102
}
330
2A
100
AcDbVisualStyle
  2
Realistic
 70
     8
 71
     2
 72
     2
 73
     0
 90
        0
 40
-0.6
 41
-30.0
 62
     5
 63
     7
 74
     1
 91
        0
 64
     7
 65
   257
 75
     1
175
     1
 42
1.0
 92
        8
 66
     8
 43
1.0
 76
     1
 77
     6
 78
     2
 67
     7
 79
     5
170
     0
171
     0
290
     0
174
     0
 93
       13
 44
0.0
173
     0
291
     0
 45
0.0
1001
ACAD
1000
AcDbSavedByObjectVersion
1070
     0
  0
VISUALSTYLE
  5
37
102
{ACAD_REACTORS
330
2A
102
}
330
2A
100
AcDbVisualStyle
  2
Thicken
 70
    13
 71
     2
 72
     2
 73
     0
 90
        0
 40
-0.6
 41
-30.0
 62
     5
 63
     7
 74
     1
 91
        4
 64
     7
 65
   257
 75
     1
175
     1
 42
1.0
 92
       12
 66
     7
 43
1.0
 76
     1
 77
     6
 78
     2
 67
     7
 79
     5
170
     0
171
     0
290
     0
174
     0
 93
        1
 44
0.0
173
     0
291
     1
 45
0.0
1001
ACAD
1000
AcDbSavedByObjectVersion
1070
     0
  0
DICTIONARYVAR
  5
DD
102
{ACAD_REACTORS
330
DA
102
}
330
DA
100
DictionaryVariables
280
     0
  1
1:1
  0
XRECORD
  5
D9
102
{ACAD_REACTORS
330
D8
102
}
330
D8
100
AcDbXrecord
280
     1
1000
This DWG file was created in ArchiCAD(TM)®
  0
ENDSEC
  0
EOF
